Staind - Home Chords & Tabs

 

Home Chords & Tabs

Staind Chords & Tabs

Version: 4 Type: Tab 0 ratings
1 star 2 stars 3 stars 4 stars 5 stars
comments

Home Tab

   
The guitars are all tunned a half step lower and are played in dropp D
It May look hard but play along with the song and you will figure it out

TABED BY: GARY PRATER
E-MAIL:   Lilbrosmurf@hotmail.com


BEGINNING: INTRO
e----------------------|
B----------------------|
G--7^6-----------------|  
D--------4^5^4-5-5^7---|    < 3 Times Then play end intro
A--4^5---0---0-5-3-----|
D--0-----0---0-5-3-----| 

END: INTRO
e----------------------|
B----------------------| 
G----------------------|
D--4^5-4^5^4--------7--|
A--2---2------------7--|
D-------------5-4---7--|

[ Tab from: http://www.guitartabs.cc/tabs/s/staind/home_tab_ver_4.html ]
GUITAR 1                    GUITAR 2
VERSE:       
e-------{Guitar 2}---|      e5----5----5----5----5---|
B-------{plays in}---|      B--8----8----8----8----8-|
G-------{background}-|      G---------7---------7----|
D--005-3-777^8-------|      D------------------------|
A--005~2-555-5-------|      A------------------------|
D--000-0-555-5-------|      D------------------------|
    ^FORCE MYSELF THROUGH...
 
CHORUS1:
e--------------------------------------------------------|
B--------------------------------------------------------|
G--------------------------------------------------------|
D-555-00/-----4----777-00/---4----777-00/---4----777-00/-|
A-555-00/-----2----555-00/---2----555-00/---2----555-00/-|
D-555-00/-----2----555-00/---2----555-00/---2----555-00/-|Cont.
              ^AND IM AF...  ^AFRAID...     ^I'M AFRAID... 

CHORUS:Cont.
e---------------|
B---------------|
G---------------|
D--4-slide~~~12-|
A--2-slide~~~12-|
D--2-slide~~~12-|
 (Slide to 12 fret. you dont play the fret)


GUITAR 1                  GUITAR 2
VERSE:       
e-------{Guitar 2}---|    e5----5----5----5----5---|
B-------{plays in}---|    B--8----8----8----8----8-|
G-------{background}-|    G---------7---------7----|
D--005-3-777^8-------|    D------------------------|
A--005~2-555-5-------|    A------------------------|
D--000-0-555-5-------|    D------------------------|
    ^ANOTHER SLEEPLES...

 
CHORUS2:
e--------------------------------------------------------|
B--------------------------------------------------------|
G--------------------------------------------------------|
D-555-00/-----4----777-00/---4----777-00/---4----777-00/-|
A-555-00/-----2----555-00/---2----555-00/---2----555-00/-|
D-555-00/-----2----555-00/---2----555-00/---2----555-00/-|Cont.
              ^AND IM AF...  ^AFRAID...     ^I'M AFRAID... 


CHORUS CONTINUE:
e---|
B---|
G---|
D-4-|
A-2-|
D-2-|


INTROLUDE:
e--------------------------|
B--------------------------|
G---------0---------0------|  
Comments