Staind - For You Chords & Tabs

 

For You Chords & Tabs

Staind Chords & Tabs

Version: 9 Type: Tab 0 ratings
1 star 2 stars 3 stars 4 stars 5 stars
comments

For You Tab

Tuning: Drop D, plus half step down - Db-Ab-Db-Gb-Bb-Eb

Each Bar= 1 measure in 4:4 time

Guitar 1-Distrtion
Guitar 2(bass)- Distortion
Guitar 3-clean w/ delay

Key:
slide down- \
slide up- /
bend(half)- ^
bend(full)- ^^
hammer on- h
pull off- p

This is a great song by a great band.  Ive seen them in concret
and this is how i know that this tab is 100% correct.


Intro/ Verse- 

Db----------------------------------------------------------
Ab----------------------------------------------------------
Db----------------------------------------------------------
Gb----------------------------------------------------------
Bb--2h4--------2h4-----2h4-----------2h4--------------------
Eb--2h4--4--4--2h4--4--2h4--4--4--4--2h4--4--4--------------
         pm..      pm       pm.....       pm..          

Db----------------------------------------------------------
Ab----------------------------------------------------------
Db----------------------------------------------------------
Gb----------------------------------------------------------
Bb--2h4--------2h4-----2h4-----------5\4--------------------
Eb--2h4--4--4--2h4--4--2h4--4--4--2--5\4--2--2--------------  
         pm..      pm      pm......       pm..      
                                                            Chorus- 

Guitar 1:
Db----------------------------------------------------------
Ab--7--------(7)\5------------5-----------------------------
Db---------------------------------------6------------------
Gb----------------------------------------------------------
Bb----------------------------------------------------------
Eb----------------------------------------------------------

Db--5-------------------4-----------------------------------
Ab----------------------------------------------------------
Db----------------------------------------------------------
Gb----------------------------------------------------------
Bb----------------------------------------------------------
Eb----------------------------------------------------------

Db----------------------------------------------------------
Ab--7--------(7)\5------------5-----------------------------
Db---------------------------------------6------------------
Gb----------------------------------------------------------
Bb----------------------------------------------------------
Eb----------------------------------------------------------

Db--5-------------------4-----------------------------------
Ab----------------------------------------------------------
Db----------------------------------------------------------
Gb----------------------------------------------------------
Bb----------------------------------------------------------
Eb----------------------------------------------------------

Guitar 2(bass):
Db----------------------------------------------------------
Ab----------------------------------------------------------
Db----------------------------------------------------------
Gb----------------------------------------------------------
Bb-4----4----4----------------5----5----5-------------------
Eb-4----4----4----------------4----4----4-------------------

Db----------------------------------------------------------
Ab----------------------------------------------------------
Db----------------------------------------------------------
Gb----------------------------------------------------------
Bb--7-------------------2-------------------2---------------
Eb--7-------------------2-------------------2----------0----

Db----------------------------------------------------------
Ab----------------------------------------------------------
Db----------------------------------------------------------
Gb----------------------------------------------------------
Bb-4----4----4----------------5----5----5-------------------
Eb-4----4----4----------------4----4----4-------------------

Db----------------------------------------------------------
Ab----------------------------------------------------------
Db----------------------------------------------------------
Gb----------------------------------------------------------
Bb--7-------------------7-----------------------------------
Eb--7-------------------6-----------------------------------




Bridge-
[ Tab from: http://www.guitartabs.cc/tabs/s/staind/for_you_tab_ver_9.html ]
Guitar 3:
Db----------------------------------------------------------
Ab----------------------------------------------------------
Db----------------------------------------------------------
Gb--------------------------------------------------------x9
Bb----------------------------------------------------------
Eb--4-------4------------4------------4-----------4------4--
   pm......................................................

Guitar 1(comes in on seventh time for guitar 3): 
Db----------------------------------------------------------
Ab----------------------------------------------------------
Db----------------------------------------------------------
Gb----------------------------------------------------------
Bb-4--------------------------------------------------------
Eb-4--------------------------------------------------------

Db----------------------------------------------------------
Ab----------------------------------------------------------
Db----------------------------------------------------------
Gb----------------------------------------------------------
Bb-4--------------------------------------------------------
Eb-4--------------------------------------------------------

Db----------------------------------------------------------
Ab----------------------------------------------------------
Db----------------------------------------------------------
Gb----------------------------------------------------------
Bb-4-4------------------------------------------------------
Eb-4-4------------------------------------------------------

Db----------------------------------------------------------
Ab----------------------------------------------------------
Db----------------------------------------------------------
Gb----------------------------------------------------------
Bb-4-4------------------------------------------------------
Eb-4-4------------------------------------------------------

Db----------------------------------------------------------
Ab----------------------------------------------------------
Db----------------------------------------------------------
Gb--------------------------------------------------------x3
Bb--4-------4-----------4---------2------4----2-------------
Eb--4----2--4------2----4----2----2------4----2-------------
        pm        pm        pm         

Db----------------------------------------------------------
Ab----------------------------------------------------------
Db----------------------------------------------------------
Gb----------------------------------------------------------
Bb--4-------4-----------4---------2------2----2-------------
Eb--4----2--4------2----4----2----2------2----2-------------
        pm        pm        pm            


Outro-

Guitar 1
Db----------------------------------------------------------
Ab----------------------------------------------------------
Db----------------------------------------------------------
Gb----------------------------------------------------------
Bb--2h4-----------2h4------2--------------------------------
Eb--2h4---4---4---2h4------2--------------------------------
         pm....


Intro/Verse x6
Chorus x2
Intro/Verse x6
Chorus x2
Bridge x1
Chorus x4
Outro  x1


Lyrics:

Verse 1:
To my mother, to my father
Its your son or, its your daughter
Are my screams, loud enough for
you to hear me?, Should i turn this up for you?

Chorus:
I sit here locked inside my head
Remembring everything youve said
The silence gets us nowhere
Gets us nowhere way too fast

Verse 2:
The silence, is what kills me
I need someone, here to help me 
But you dont know, how to listen
And let me make, my decisions

Chorus:
I sit here locked inside my head
Remembring everything youve said
The silence gets us nowhere
Gets us nowhere way too fast

Bridge:
All your insults, and your curses
Make me fell like, im not a person
And i feel like, I am nothing 
But you make me, so do something
Cause im fucked up, because you are
Need attention, attention you couldnt give

Chorus:
I sit here locked inside my head
Remembring everything youve said
The silence gets us nowhere
Gets us nowhere way too fast 
I sit here locked inside my head
Remembring everything youve said
The silence gets us nowhere
Gets us nowhere way too fast

Comments