Staind - For You Chords & Tabs

 

For You Chords & Tabs

Staind Chords & Tabs

Version: 7 Type: Tab 0 ratings
1 star 2 stars 3 stars 4 stars 5 stars
comments

For You Tab

   
Artist/Author: Staind
Title: For You
Album : Break the Cycle
Tuning: Drop D  step down (Db Ab Db Gb Bb Eb) 

Great riff. Pretty easy but really good.
The main part is getting the rhythm!!!
I did not put down how many times to play something(sry).

Tab Key 
/ = slide up
\ = slide down
h = hammer on
p = pull off
x = mute strings

Intro/Verse  (distortion with slight palm mute)
-----------------------------------------|
-----------------------------------------|
-----------------------------------------|
-2h4--x-x--2h4--x--2h4--x-x-x--2h4--x-x--|
-2h4--x-x--2h4--x--2h4--x-x-x-2h4--x-x--|
-2h4--x-x--2h4--x--2h4--x-x-x--2h4--x-x--|

-----------------------------------------|
-----------------------------------------|
-----------------------------------------|
-2h4--x-x--2h4--x--2h4--x-x-x--5-4--x-x--|
-2h4--x-x--2h4--x--2h4--x-x-x--5-4--x-x--|
-2h4--x-x--2h4--x--2h4--x-x-x--5-4--x-x--|


Chorus  (listen to the rhythm for strumming pattern)

Guitar 1 - 
-------------------------------------------|
-------------------------------------------| 
-------------------------------------------| 
-4-4-4-4-4---\2-2-2-2-2---/7-7-7-7--6-6-6--| 
-4-4-4-4-4---\2-2-2-2-2---/7-7-7-7--6-6-6--|
-4-4-4-4-4---\2-2-2-2-2---/7-7-7-7--6-6-6--|

Guitar 2 - 
-------------------------------------------|
-------------------------------------------|I think this is
-6-6-6-6-6---\2-2-2-2-2---\8-9-8-----/4-6--|right . . . not sure.
-4-4-4-4-4---\2-2-2-2-2---\6-7-6-----/2-4--|
-------------------------------------------|
-------------------------------------------|

Then play the verse 


Then play the chorus
[ Tab from: http://www.guitartabs.cc/tabs/s/staind/for_you_tab_ver_7.html ]
Interlude  (light distortion with light palm mute)
-----------------------------|
-----------------------------|
-----------------------------| 
-4-4-4-4----4--4----4-4-4-4--|
-----------------------------|
-----------------------------|

Then on the heavy parts -
-----------------------|
-----------------------|
-----------------------|
-4-4-4-4-4--4-4-4-4-4--|
-4---------------------|
-4---------------------|

Then this  
------------------------|
------------------------|
------------------------|
-4-4--4-4-4--4-4-4-4-4--|
-4-4--------------------|
-4-4--------------------|

Then the real heavy part -
------------------------|
------------------------|
------------------------|
-0-4-0-4-0-4-0--4--2h4--|
-0-4-0-4-0-4-0--4--2h4--|
-0-4-0-4-0-4-0--4--2h4--|

Play the chorus     

Outro 
-----------------------------------------|
-----------------------------------------|
-----------------------------------------|
-2h4--x-x--2h4--x--2h4--x-x-x--2h4--x-x--|
-2h4--x-x--2h4--x--2h4--x-x-x-2h4--x-x--|
-2h4--x-x--2h4--x--2h4--x-x-x--2h4--x-x--|

-----------------------------------------|
-----------------------------------------|
-----------------------------------------|
-2h4--x-x--2h4--x--2h4--x-x-x--5-4--x-x--|
-2h4--x-x--2h4--x--2h4--x-x-x--5-4--x-x--|
-2h4--x-x--2h4--x--2h4--x-x-x--5-4--x-x--|

-----------------------------------------|
-----------------------------------------|
-----------------------------------------|
-2h4--x-x--2h4--x--2h4--x-x-x--2h4--x-x--|
-2h4--x-x--2h4--x--2h4--x-x-x-2h4--x-x--|
-2h4--x-x--2h4--x--2h4--x-x-x--2h4--x-x--|

----------------------|
----------------------|
----------------------|
-2h4--x-x--2h4--x--2--|
-2h4--x-x--2h4--x--2--|
-2h4--x-x--2h4--x--2--|

Comments