Staind - For You Chords & Tabs

 

For You Chords & Tabs

Staind Chords & Tabs

Version: 6 Type: Tab 0 ratings
1 star 2 stars 3 stars 4 stars 5 stars
comments

For You Tab

   



For You-Staind
Break The Cycle

Drop Db
Db Ab Db Gb Bb Eb

Intro: Fig 1. x2

p.m. single notes
e-----------------------------------------------------------------
b-----------------------------------------------------------------
g-----------------------------------------------------------------
d-----------------------------------------------------------------
a-2h4-----2h4---2h4-------2h4-----2h4-----2h4---2h4-------5\4-----
d-2h4-4-4-2h4-4-2h4-4-4-4-2h4-4-4-2h4-4-4-2h4-4-2h4-4-4-2-5\4-2-2-

Verses: Fig 1. x4

Chorus: Fig 2.

e-----------------------------------------------------------------
b-----------------------------------------------------------------
g-----------------------------------------------------------------
d-----------------------------------------------------------------
a-4-4--4---5-5--5---7----2----2------4-4--4---5-5--5---7---7------
d-4-4--4---4-4--4---7----2----2--0---4-4--4---4-4--4---7---6------

Riff A Gtr 2.

e-------------------5----4-----------------------------5----4-----
b-7----\5--5-------------------------7----\5--5-------------------
g---------------6----------------------------------6--------------
d-----------------------------------------------------------------
a-----------------------------------------------------------------
d-----------------------------------------------------------------

Bridge: w/ phaser
[ Tab from: http://www.guitartabs.cc/tabs/s/staind/for_you_tab_ver_6.html ]
e-----------------------------------------------------------------
b-----------------------------------------------------------------
g-----------------------------------------------------------------
d-----------------------------------------------------------------
a-----------------------------------------------------------------
d-4-x-x-4-x-x-4-x-x-4-x-x-4-x-4-x-4-x-x-4-x-x-4-x-x-4-x-4-x-------

e-----------------------------------------------------------------
b-----------------------------------------------------------------
g-----------------------------------------------------------------
d-----------------------------------------------------------------
a-4----------------4-------------------4--4----------4--4---------
d-4----------------4-------------------4--4----------4--4---------

e-----------------------------------------------------------------
b-----------------------------------------------------------------
g-----------------------------------------------------------------
d-----------------------------------------------------------------
a-4----4----4----2--4--2--4----4----4----2--4--2------------------
d-4--2-4--2-4--2-2--4--2--4--2-4--2-4--2-2--4--2------------------

e-----------------------------------------------------------------
b-----------------------------------------------------------------
g-----------------------------------------------------------------
d-----------------------------------------------------------------
a-4----4----4----2--4--2--4----4----4----2--2--2------------------
d-4--2-4--2-4--2-2--4--2--4--2-4--2-4--2-2--2--2------------------

Outro:

e-----------------------------------------------------------------
b-----------------------------------------------------------------
g-----------------------------------------------------------------
d-----------------------------------------------------------------
a-2h4-----2h4---2h4-------2h4-----2h4-----2h4---2-----------------
d-2h4-4-4-2h4-4-2h4-4-4-4-2h4-4-4-2h4-4-4-2h4---2-----------------

that’s all
this is a fuckin’ awesome song
great video too

trevor jones
timmy91199@yahoo.ca
Comments