Staind - For You Chords & Tabs

 

For You Chords & Tabs

Staind Chords & Tabs

Version: 2 Type: Tab 0 ratings
1 star 2 stars 3 stars 4 stars 5 stars
comments

For You Tab

Artist:Staind
Title:For you
Album:Break the cycle

this is one of the awedsome tracks from the new CD:

-----------------------------------------------------
-----------------------------------------------------
-----------------------------------------------------
2-4--2-4--2-4--5-4-------------------------------------------
2-4--2-4--2-4--5-4-------------------------------------------
0/2--0/2--0/2--3/2-----------------------------------------------
[ Tab from: http://www.guitartabs.cc/tabs/s/staind/for_you_tab_ver_2.html ]
do that till you get to the chorus:
-----------------------------------
-----------------------------------
11-11--6-------9--9--6---------------------
11-11--6-7--7--9--9--6-----------------------
9--9---4-7--7--7--7--4---------------------
---------5--5-------------------------

interlude:
-----------------------------------------
-----------------------------------------
----------------------------------------
---------4-------------------------------5x
---------4------------------------------
xxxxxxxxx2---------------------------------------

then do the chorus again. This is my first tab,so have fun.
also if you have the tabs to the following songs:waste-staind,crawl-staind
email them to me at kylecfree@aol.com
Comments