Staind - For You Chords & Tabs

 

For You Chords & Tabs

Staind Chords & Tabs

Version: 1 Type: Tab 0 ratings
1 star 2 stars 3 stars 4 stars 5 stars
comments

For You Tab

Staind – For You

Album: Break the Cycle
Tabbed By: Sean Hollens (dark_sider666@hotmail.com)

Awesome song.

Drop D Tuning


Intro/Verse:

|----------------------------------------------------------|
|----------------------------------------------------------|
|----------------------------------------------------------|
|----------------------------------------------------------|
|-1/3-------1/3-----1/3---------1/3-------1/3-------1/3----|
|-1/3--3-3--1/3--3--1/3--3-3-3--1/3--3-3--1/3--3-3--1/3--3-|
       _ _       _       _ _ _       _ _       _ _       _

|-----------------------|
|-----------------------| X6
|-----------------------|
|-----------------------|
|--1/3---------4\3------|
|--1/3--3-3-3--4\3--1-1-|
        _ _ _       _ _

Chorus:

|--------------------------------------------------------------|
|--------------------------------------------------------------|
|----------6-6-6-6-----------------------------6-6-6-6---------|
|-3-3-3-3--6-6-6-6--6-6-6--1-1-1-1-1--3-3-3-3--6-6-6-6--6-6-6--|
|-3-3-3-3--4-4-4-4--6-6-6--1-1-1-1-1--3-3-3-3--4-4-4-4--6-6-6--|
|-3-3-3-3-----------6-6-6--1-1-1-1-1--3-3-3-3-----------6-6-6--|

|-----------|
|-----------| X2
|-----------|
|-6-6-6-6-6-|
|-6-6-6-6-6-|
|-5-5-5-5-5-|

|----------------------------------------------------------|
|----------------------------------------------------------|
|----------------------------------------------------------|
|----------------------------------------------------------|
|-1/3-------1/3-----1/3---------1/3-------1/3-------1/3----|
|-1/3--3-3--1/3--3--1/3--3-3-3--1/3--3-3--1/3--3-3--1/3--3-|
       _ _       _       _ _ _       _ _       _ _       _
|-----------------------|
|-----------------------| X4
|-----------------------|
|-----------------------|
|--1/3---------4\3------|
|--1/3--3-3-3--4\3--1-1-|
        _ _ _       _ _

|--------------------------------------------------------------|
|--------------------------------------------------------------|
|----------6-6-6-6-----------------------------6-6-6-6---------|
|-3-3-3-3--6-6-6-6--6-6-6--1-1-1-1-1--3-3-3-3--6-6-6-6--6-6-6--|
|-3-3-3-3--4-4-4-4--6-6-6--1-1-1-1-1--3-3-3-3--4-4-4-4--6-6-6--|
|-3-3-3-3-----------6-6-6--1-1-1-1-1--3-3-3-3-----------6-6-6--|
[ Tab from: http://www.guitartabs.cc/tabs/s/staind/for_you_tab.html ]
|-----------| -| X2
|-----------|  |   
|-----------|  |-Play Chord Once And Let Ring 2nd Time Before Bridge
|-6-6-6-6-6-|  |
|-6-6-6-6-6-| -|
|-5-5-5-5-5-|

Bridge:

|------------------|    |--------------------------------------|
|------------------| X5 |--------------------------------------|
|------------------|    |--------------------------------------|
|------------------|    |------------------3-----------------3-|
|------------------|    |------------------3-----------------3-|
|-3--3--3--3---3-3-|    |-3--3--3--3---3-3-3---3--3--3---3-3-3-|
  _  _  _  _   _ _        _  _  _  _   _ _     _  _  _   _ _




|---------------------------------------------------------|
|---------------------------------------------------------|
|---------------------------------------------------------|
|------------------3-3--------------3-3-------------------|
|------------------3-3--------------3-3-------------------|
|-3--3--3--3---3-3-3-3---3--3---3-3-3-3---3--3--3--3--3-3-|
  _  _  _  _   _ _       _  _   _ _       _  _  _  _  _ _





|-------------------|
|-------------------| X4
|-------------------|
|-------------------|
|-3-1-3-1-3-1-3-4-1-|
|-3-1-3-1-3-1-3-4-1-|
    _   _   _   

|--------------------------------------------------------------|
|--------------------------------------------------------------|
|----------6-6-6-6-----------------------------6-6-6-6---------|
|-3-3-3-3--6-6-6-6--6-6-6--1-1-1-1-1--3-3-3-3--6-6-6-6--6-6-6--|
|-3-3-3-3--4-4-4-4--6-6-6--1-1-1-1-1--3-3-3-3--4-4-4-4--6-6-6--|
|-3-3-3-3-----------6-6-6--1-1-1-1-1--3-3-3-3-----------6-6-6--|

|-----------|          
|-----------| X4
|-----------|
|-6-6-6-6-6-|
|-6-6-6-6-6-|
|-5-5-5-5-5-|

|----------------------------------------------------------|
|----------------------------------------------------------|
|----------------------------------------------------------|
|----------------------------------------------------------|
|-1/3-------1/3-----1/3---------1/3-------1/3-------1/3----|
|-1/3--3-3--1/3--3--1/3--3-3-3--1/3--3-3--1/3--3-3--1/3--3-|
       _ _       _       _ _ _       _ _       _ _       _

|-------------|----------|                   |-----|
|-------------|----------| X2  Second ending |-----|
|-------------|----------|                   |-----|
|-------------|----------|                   |-----|
|--1/3--------|-4\3------|                   |-4\1-|
|--1/3--3-3-3-|-4\3--1-1-|                   |-4\1-|
        _ _ _        _ _                         _

Comments