Staind - Fill Me Up Chords & Tabs

 

Fill Me Up Chords & Tabs

Staind Chords & Tabs

Version: 1 Type: Tab 0 ratings
1 star 2 stars 3 stars 4 stars 5 stars
comments

Fill Me Up Tab

   
Band- Staind
Song- Fill Me Up

Tuning: Ab,Db,Ab,Db,Gb,Bb 

Gtr. I     Mike Mushok Distorted
Gtr. II    Mike Mushok Slighty Dirty Electric
Gtr. III   Mike Mushok Distorted (w/ phase shifting effect and e-Bow)
Gtr. IV    Mike Mushok Distorted (Rhythm)
Gtr. V     Mike Mushok Distorted (Lead)
Gtr. VI    Piano Arranged For Guitar

   Main Riff:
   Gtr. I
Bb|-----------------------------------------------------------|
Gb|-----------------------------------------------------------|
Db|-----------------------------------------------------------|
Ab|-----------------------------------------------------------|
Db|--7/9-9-9--9\7-x-xx--5--5-5-5---5/7-7/9-9--xx-xx--7--7-7---|
Ab|--5/7-7-7--7\5-x-xx--3--3-3-3---3/5-5/7-7--xx-xx--5--5-5---|

[ Tab from: http://www.guitartabs.cc/tabs/s/staind/fill_me_up_tab.html ]
   Verse One:
   Gtr. II
Bb|-------------------------------------------------|
Gb|-------------------------------------------------|
Db|--7h9---9-----7h9---9-----7h9---9-----5h7----7---|
Ab|--7---7-------7---7-------7---7-------5----5-----|
Db|-------------------------------------------------|
Ab|-------------------------------------------------|
  |						    |
  |Gtr. III					    |
Bb|--12--------(12)--------(12)--------(12)---------|
Gb|---x---------(x)---------(x)---------(x)---------|
Db|---9---------(9)---------(9)---------(9)---------|
Ab|-------------------------------------------------|
Db|-------------------------------------------------|
Ab|-------------------------------------------------|


   Chorus Progression:
   Gtr. IV
Bb|-----------------------------------------------|
Gb|-----------------------------------------------|
Db|--10----------2----------0---------------------|
Ab|--10----------2----------0---------(3)---------|
Db|--10----------2----------0----------5----------|
Ab|------------------------------------3----------|
  |						  |
  |Gtr. V					  |
Bb|--10---8---7--8---7---5--3---------(3)-----5---|
Gb|---x---x---x--x---x---x--x---------(x)-----x---|
Db|---7---5---4--5---4---2--0---------(0)-----2---|
Ab|-----------------------------------------------|
Db|-----------------------------------------------|
Ab|-----------------------------------------------|


   Verses Two & Three Piano Riff:
   Gtr. VI
Bb|----------10----12--------12-10----------------|
Gb|--11-9-12-------11--------------12----11-------|
Db|-----------------9--------------------12-------|
Ab|--------------------------------------12-------|
Db|-----------------------------------------------|
Ab|-----------------------------------------------|
Comments