Staind - Fade Chords & Tabs

 

Fade Chords & Tabs

Staind Chords & Tabs

Version: 8 Type: Bass Tab 0 ratings
1 star 2 stars 3 stars 4 stars 5 stars
comments

Fade Bass Tab

   
Staind
Fade (4-string)
Tabbed by olli 15

Drop D tuning and a half a step Db,Ab,Db,Gb

Intro
G---------------------------------------------------
D-22-2-22-2-22-0------------------------------------
A---------------------------------------------------
D-----------------22-2-22-2-22-0--repeat this twice-


G---------------------------------------------------
D---------------------------------------------------
A---------------------------------------------------
D-0-2-2-2-0-0-0-5-5-5-5-0-0-------repeat this twice-
[ Tab from: http://www.guitartabs.cc/tabs/s/staind/fade_btab_ver_8.html ]
Main Thing
G---------------------------------------------------
D-22-2-22-2-22-0------------------------------------
A---------------------------------------------------
D-----------------22-2-22-2-22-0-repeat three times-

Chorus
G---------------------------------------------------
D---------------------------------------------------
A---------------------------------------------------
D-5--5--5-0-5-5-5-5-5-0-5-0--3-3-3-3/9-9-9-7-7-7-7--

G---------------------------------------------------
D---------------------------------------------------
A---------------------------------------------------
D-5--5--5-0-5-5-5-5-5-0-5-0--3-3-3-3-0-0-0-0-0-0-0-0

Thats it! Dont forget to drop d tune and one half a step!
Comments