Staind - Fade Chords & Tabs

 

Fade Chords & Tabs

Staind Chords & Tabs

Version: 6 Type: Bass Tab 0 ratings
1 star 2 stars 3 stars 4 stars 5 stars
comments

Fade Bass Tab

   
Song: Fade 
Band: Staind 
Album: Break The Cycle 
Tabbed By: Eric Calcara 
E-mail: Eric.Calcara@drexel.edu 
Tuning: E, A, D, G 


Intro 1 (2x):  

G  ----------------------------------------------------------------  
D  ----------------------------------------------------------------  
A  --6-6----6-6-6----6-6-6----4------------------------------------  
E  ------------------------------------3-3----3-3-3----3-3-3----1--  


Intro 2 (2x):  
[ Tab from: http://www.guitartabs.cc/tabs/s/staind/fade_btab_ver_6.html ]
G  ----------------------------------------------------------------------------  
D  ----------------------------------------------------------------------------  
A  --6-6-6----6-6-6----6-6-6----6-4-4------------------------------------------  
E  ------------------------------------------3-3-3----3-3-3----3-3-3----3-1-1--  


Verse:  

G  ----------------------------------------------------  
D  ----------------------------------------------------  
A  -----------------------4-5-6----7-7-7-7----4-4-4-4--  
E  --5----5-5-5----5-5---------------------------------  


Chorus:  

G  ----------------------------------------------------------------  
D  ----------------------------------------------------------------  
A  --6-6----6-6-6----6-6-6----4------------------------------------  
E  ------------------------------------3-3----3-3-3----3-3-3----1-- 


Bridge (4x):  

G  ----------------------  
D  ----------------------  
A  --4-6----6-4----4-4~--  
E  ---------------------- 
Comments