Staind - Fade Chords & Tabs

 

Fade Chords & Tabs

Staind Chords & Tabs

Version: 2 Type: Bass Tab 0 ratings
1 star 2 stars 3 stars 4 stars 5 stars
comments

Fade Bass Tab

   
                           Staind - Fade
               		Tabbed by: Shane Dowell
                          C#,A,D,G Tuning


      Intro/Outro
G----------------------------
D----------------------------
A--66-666-666-4--------------
C#--------------22-222-222-0-


Part between intro and verse
G---------------------
D---------------------
A--46-6-64-44---------
C#------------2-220-0-


      Verse
G----------------------------
D----------------------------
A--66-666-666-4--------------
C#--------------22-222-222-0-


	Pre-Chorus
G---------------
D---------------
A---------------
C#-22-222-222-0-

[ Tab from: http://www.guitartabs.cc/tabs/s/staind/fade_btab_ver_2.html ]
                      Chorus
G---------------------------------------------|---------------------------------------------
D-------4------4----4--------2----------------|-------4------4----4--------2----------------
A---------------------------------------------|------------------------------------4----4---
C#-5-55---55-5---55---5-3-33---39-9-9-7-7-7-7-|--5-55---55-5---55---5-3-33---3-0-0---00---0-



      Verse
G----------------------------
D----------------------------
A--66-666-666-4--------------
C#--------------22-222-222-0-




 Part after 2nd Chorus
G---------------------
D---------------------
A--46-64-6------------
C#---------2-2-0-0000-


As right as I think. If you have any questions or corrections, e-mail me at:
                   smd24_24@yahoo.com
Comments