Staind - Excess Baggage Chords & Tabs

 

Excess Baggage Chords & Tabs

Staind Chords & Tabs

Version: 6 Type: Tab 0 ratings
1 star 2 stars 3 stars 4 stars 5 stars
comments

Excess Baggage Tab

Artist: Staind
Title:  Excess Baggage
Album:  MTV Unplugged (2001)
Tabbed by: Me (alreadygone@gmx.de)



Please read this !

Since Mike Mushok plays a Baritone Guitar I tabbed this out for normal drop-D guitar
and I guaratee my tabs are 100% accurate, just play along the dvd and you'll see.
The songs I haven't completely figured out yet are "pressure", "It's been Awhile"
(which has 3 guitars in it!!!), "cant believe" and "fade". I'd really appreciate
it if anyone knows how these songs are played in the unplugged and helped me. 



Time: 6/8


Guitar 1 (Aaron Lewis) | 1/2 Step Down: Eb Ab Db Gb Bb Eb


Verse


  | 1  +  2  +  3  + | 1  +  2  +  3  + |
_________________________________________
                                         
Eb|------------------|------------------|
Bb|------------------|------------------|
Gb|----------0-------|----------0-------|
Db|-------4-----4----|-------4-----4----|
Ab|----2-----------2-|----2-----------2-|
Eb|-0----------------|-0----------------|


  | 1  +  2  +  3  + | 1  +  2  +  3  + |
_________________________________________
                                         
Eb|------------------|------------------|
Bb|------------------|------------------|
Gb|----------0-------|----------0-------|
Db|-------4-----4----|-------4-----4----|
Ab|----2-----------2-|----2-----------2-|
Eb|-3----------------|-3----------------|



Chorus


  | 1  +  2  +  3  + | 1  +  2  +  3  + |
_________________________________________
                                                      
Eb|------------------|------------------|
Bb|----------0-------|----------0-------|
Gb|-------2-----2----|-------2-----2----|
Db|----2-----------2-|----2-----------2-|
Ab|-0----------------|-0----------------|
Eb|------------------|------------------|


  | 1  +  2  +  3  + | 1  +  2  +  3  + |
_________________________________________
                                                      
Eb|------------------|------------------|
Bb|----------0-------|----------0-------|
Gb|-------0-----0----|-------0-----0----|
Db|----2-----------2-|----2-----------2-|
Ab|-3----------------|-3----------------|
Eb|------------------|------------------|


End Chorus like this:


  | 1  +  2  +  3  + | 1  +  2  +  3  + |
_________________________________________
                                                      
Eb|------------------|------------------|
Bb|----------0-------|----------0-------|
Gb|-------0-----0----|-------0----------|
Db|----2-----------2-|----2-------------|
Ab|-3----------------|-3----------------|
Eb|------------------|------------------|





Guitar 2 (Mike Mushok) | 1/2 Step Down + Drop-D


Verse

The first two bars he plays a bit funny, I dont know
what happened there. (Maybe he just made this up :) )

[ Tab from: http://www.guitartabs.cc/tabs/s/staind/excess_baggage_tab_ver_6.html ]
  | 1  +  2  +  3  + | 1  +  2  +  3  + |
_________________________________________
                                                      
Eb|------------------|------------------|
Bb|------------------|------------------|
Gb|-9--------9-------|-9--------9-------|
Db|----12-------12---|----12-------12---|
Ab|-------10-------10|-------10-------10|
Db|------------------|------------------|


  | 1  +  2  +  3  + | 1  +  2  +  3  + |
_________________________________________
                                                      
Eb|------------------|------------------|
Bb|------------------|------------------|
Gb|----------9-------|----------9-------|
Db|-------9-----12---|-------9-----12---|
Ab|----10----------10|----10----------10|
Db|-0----------------|-0----------------|


Chorus


  | 1  +  2  +  3  + | 1  +  2  +  3  + |
_________________________________________
                                                      
Eb|------------------|------------------|
Bb|------------------|------------------|
Gb|------------------|------------------|
Db|----------2-------|----------2-------|
Ab|(0)----0-----0----|(0)----0-----0----|
Db|----2-----------2-|----2-----------2-|


  | 1  +  2  +  3  + | 1  +  2  +  3  + |
_________________________________________
                                                      
Eb|------------------|------------------|
Bb|------------------|------------------|
Gb|------------------|------------------|
Db|----------5-------|----------5-------|
Ab|(3)----3-----3----|(3)----3-----3----|
Db|----5-----------5-|----5-----------5-|


End Chorus like this:


  | 1  +  2  +  3  + | 1  +  2  +  3  + |
_________________________________________
                                                      
Eb|------------------|------------------|
Bb|------------------|------------------|
Gb|------------------|------------------|
Db|----------5-------|----------5-------|
Ab|(3)----3-----3----|(3)----3----------|
Db|----5-----------5-|----5-------------|





End Song like this:

Guitar 1


  | 1  +  2  +  3  + | 1  +  2  +  3  + |
_________________________________________
                                                      
Eb|------------------|------------------|
Bb|------------------|------------------|
Gb|----------0-------|------------------|
Db|-------4-----4----|------------------|
Ab|----2-----------2-|------------------|
Eb|-0----------------|-0----------------|


Guitar 2

  | 1  +  2  +  3  + | 1  +  2  +  3  + |
_________________________________________
                                                      
Eb|------------------|--~arpeggiate~----|
Bb|------------------|------------------|
Gb|-9--------9-------|-----9------------|
Db|----12-------12---|----9-------------|
Ab|-------10-------10|--10--------------|
Db|------------------|-0----------------|




Repeat all as necessary.

That's it ! Quite simple, actually. Feedback is very much appreciated, 
my email adress is alreadygone@gmx.de ! 
Also check out my tabs for "Me" and "Home", here on UG. Stay tuned for more.
Comments