Staind - Excess Baggage Chords & Tabs

 

Excess Baggage Chords & Tabs

Staind Chords & Tabs

Version: 3 Type: Tab 0 ratings
1 star 2 stars 3 stars 4 stars 5 stars
comments

Excess Baggage Tab

   
staind  Excess Baggage.
Tabbed by Andrew holyfrik@yahoo.com.
  
Staind
Excess Baggage
Dysfunction
By Andrew
holyfrik@yahoo.com

Tuned Eb

gb---------0---------
db-------4---4--------
ab-----2-------2------
Eb---0----------------
[ Tab from: http://www.guitartabs.cc/tabs/s/staind/excess_baggage_tab_ver_3.html ]
gb---------0----------
db-------4---4--------
ab-----2-------2------
Eb---3----------------

Then it goes

gb---------5-------------
db-------7---7-----------
ab-----7-------7---------
Eb---5-------------------


gb---------4----------------
db-------5---5--------------
ab-----5-------5------------
Eb---3----------------------

Back to the start, and repeat. 
:: Ultimate Guitar Archive :: 
http://www.ultimate-guitar.com 

Comments