Staind - Everything Changes Chords & Tabs

 

Everything Changes Chords & Tabs

Staind Chords & Tabs

Version: 2 Type: Tab 1 rating
1 star 2 stars 3 stars 4 stars 5 stars
comments

Everything Changes Tab

   
---------------------------
Staind - Everything Changes
---------------------------

tabd by : tuluks kid©2006™

me liking this song very very much.
me having no gitar when i tabing this so please be excusing for any of the erorr.
jst be changin wot you thinkin is of wrong.
i hoped you will enjoying this very much...
cheers.

Tuning  : standard (half step down)
Guitar 1: Acoustic
Guitar 2: Electric

Note: Acoustic guitar strummin chords over electric guitar picking during da verses.


Verse 1:
-------

      E        Asus       C#m      Asus
e|----0---------0----------0----------0-----|
B|----0---------0----------0----------0-----|
G|----1---------2----------6----------2-----|
D|----2---------2----------6----------2-----|
A|----2---------0----------4----------0-----|
E|----0-------------------------------------|


(Acoustic Guitar)
            E

             Asus

                C#m

                        Asus



(Electric Guitar - Clean)
               E
e|----------4--5h7-----------|-----------7--------------7--------------|
B|-------5----------5--------|-----5--------5--------------5-----------|
G|----4----------------4-----|--4-----4--------4-----4--------4-----4--|
D|------------------------6--|--------------------6--------------6-----|
A|---------------------------|-----------------------------------------|
E|---------------------------|-----------------------------------------|
     

               Asus
e|-------------4h5-----------|-----------5--------------5--------------|
B|------------------5--------|-----5--------5--------------5-----------|
G|---------------------4-----|--4-----4--------4-----4--------4-----4--|
D|------------------------7--|--------------------7--------------7-----|
A|---------------------------|-----------------------------------------|
E|---------------------------|-----------------------------------------|
               

               C#m
e|-------------2/4-----------|-----------4--------------4--------------|
B|------------------5--------|-----5--------5--------------5-----------|
G|---------------------4-----|--4-----4--------4-----4--------4-----4--|
D|------------------------6--|--------------------6--------------6-----|
A|---------------------------|-----------------------------------------|
E|---------------------------|-----------------------------------------|
               

               Asus                                 Asus
e|-------------4h5--4-----4h5--4-----4h5--4-----|---0--0--0---|
B|---------------------5----------5----------5--|---0--0--0---|
G|----------------------------------------------|---2--2--2---|
D|----------------------------------------------|---2--2--2---|
A|----------------------------------------------|---0--0--0---|
E-----------------------------------------------|-------------|
               

Chorus:
------

(Electric Guitar - w/distortion)
       E                                            Asus
e|-----0--0--0--0--0--------0--0--0--0--0--------|--0--0--0--0---0----------0--0--0--0---0---0--0---|
B|-----0--0--0--0-----0-----0--0--0--0-----0-----|--0--0--0--0-------0------0--0--0--0---0---0--0---|
G|-----1--1--1--1--------1--1--1--1--1--------1--|--2--2--2--2-----------2--2--2--2--2---2---0--0---|
D|-----2--2--2--2-----------2--2--2--2-----------|--2--2--2--2--------------2--2--2--2---2---0--0---|
A|-----2--2--2--2-----------2--2--2--2-----------|--0--0--0--0--------------0--0--0--0---0---0--0---|
E|-----0--0--0--0-----------0--0--0--0-----------|--------------------------------------------------|
                             

     C#m                                                Asus
e|----4---4--4--4---------------4--4--4--4-----------|--0--0--0--0---0--0--0---|
B|----4h5-5--5--5----5----------5--5--5--5--5--------|--0--0--0--0---0--0--0---|
G|----6---6--6--6--------6------6--6--6--6-----6-----|--2--2--2--2---2--2--2---|
D|----6---6--6--6------------6--6--6--6--6--------6--|--2--2--2--2---2--2--2---|
A|----4---4--4--4---------------4--4--4--2-----------|--0--0--0--0---0--0--0---|
E|---------------------------------------------------|-------------------------|
                     

Verse 2:
-------

(Electric Guitar - Clean)
               E
e|-------------5h7-----------|-----------7--------------7--------------|
B|------------------5--------|-----5--------5--------------5-----------|
G|---------------------4-----|--4-----4--------4-----4--------4-----4--|
D|------------------------6--|--------------------6--------------6-----|
A|---------------------------|-----------------------------------------|
E|---------------------------|-----------------------------------------|
 

               Asus
e|-------------4h5-----------|-----------5--------------5--------------|
B|------------------5--------|-----5--------5--------------5-----------|
G|---------------------4-----|--4-----4--------4-----4--------4-----4--|
D|------------------------7--|--------------------7--------------7-----|
A|---------------------------|-----------------------------------------|
E|---------------------------|-----------------------------------------|
               

               C#m
e|-------------2/4-----------|-----------4--------------4--------------|
B|------------------5--------|-----5--------5--------------5-----------|
G|---------------------4-----|--4-----4--------4-----4--------4-----4--|
D|------------------------6--|--------------------6--------------6-----|
A|---------------------------|-----------------------------------------|
E|---------------------------|-----------------------------------------|
               

               Asus                                 Asus
e|-------------4h5--4-----4h5--4-----4h5--4-----|---0--0--0---|
B|---------------------5----------5----------5--|---0--0--0---|
G|----------------------------------------------|---2--2--2---|
D|----------------------------------------------|---2--2--2---|
A|----------------------------------------------|---0--0--0---|
E-----------------------------------------------|-------------|
               

Chorus:
------

(Electric Guitar - w/distortion)
       E                                            Asus
e|-----0--0--0--0--0--------0--0--0--0--0--------|--0--0--0--0---0----------0--0--0--0---0---0--0---|
B|-----0--0--0--0-----0-----0--0--0--0-----0-----|--0--0--0--0-------0------0--0--0--0---0---0--0---|
G|-----1--1--1--1--------1--1--1--1--1--------1--|--2--2--2--2-----------2--2--2--2--2---2---0--0---|
D|-----2--2--2--2-----------2--2--2--2-----------|--2--2--2--2--------------2--2--2--2---2---0--0---|
A|-----2--2--2--2-----------2--2--2--2-----------|--0--0--0--0--------------0--0--0--0---0---0--0---|
E|-----0--0--0--0-----------0--0--0--0-----------|--------------------------------------------------|
              

     C#m                                                Asus
e|----4---4--4--4---------------4--4--4--4-----------|--0--0--0--0---0--0--0---|
B|----4h5-5--5--5----5----------5--5--5--5--5--------|--0--0--0--0---0--0--0---|
G|----6---6--6--6--------6------6--6--6--6-----6-----|--2--2--2--2---2--2--2---|
D|----6---6--6--6------------6--6--6--6--6--------6--|--2--2--2--2---2--2--2---|
A|----4---4--4--4---------------4--4--4--2-----------|--0--0--0--0---0--0--0---|
E|---------------------------------------------------|-------------------------|
                 


Solo:
-----
[ Tab from: http://www.guitartabs.cc/tabs/s/staind/everything_changes_tab_ver_2.html ]
e|-------------------------------------|-------------------------------------|
B|-----7/9---7b9b7--5--4--4--4h5-------|--12/14--12--10--9--10--10h12--7-\---|
G|--------------------------------6-/--|-------------------------------------|
D|-------------------------------------|-------------------------------------|
A|-------------------------------------|-------------------------------------|
E|-------------------------------------|-------------------------------------|


e|-------------------------------------|--11/12--11--9--12/14--12--11--14/16~~--|
B|----/7--9b10b9---9--9--9--9--10--12--|----------------------------------------|
G|-------------------------------------|----------------------------------------|
D|-------------------------------------|----------------------------------------|
A|-------------------------------------|----------------------------------------|
E|-------------------------------------|----------------------------------------|


e|----14/16\14--12--11b12b11-------------------------------|
B|---------------------------12b1412-----------------------|
G|-------------------------------------11*-----9-\-8-\-6---|
D|----------------------------------------11*--------------|
A|---------------------------------------------------------|
E|---------------------------------------------------------|
                                       pm  pm

Verse 3/interlude:
-----------------

               E
e|-------------5h7-----------|-----------7--------------7--------------|
B|------------------5--------|-----5--------5--------------5-----------|
G|---------------------4-----|--4-----4--------4-----4--------4-----4--|
D|------------------------6--|--------------------6--------------6-----|
A|---------------------------|-----------------------------------------|
E|---------------------------|-----------------------------------------|
  

               Asus
e|-------------4h5-----------|-----------5--------------5--------------|
B|------------------5--------|-----5--------5--------------5-----------|
G|---------------------4-----|--4-----4--------4-----4--------4-----4--|
D|------------------------7--|--------------------7--------------7-----|
A|---------------------------|-----------------------------------------|
E|---------------------------|-----------------------------------------|
               

               C#m
e|-------------2/4-----------|-----------4--------------4--------------|
B|------------------5--------|-----5--------5--------------5-----------|
G|---------------------4-----|--4-----4--------4-----4--------4-----4--|
D|------------------------6--|--------------------6--------------6-----|
A|---------------------------|-----------------------------------------|
E|---------------------------|-----------------------------------------|
               

               Asus
e|-------------4h5--4-----4h5--4-----4h5--------| this part   |
B|---------------------5----------5-------------| sounding    |
G|----------------------------------------------| like piano  |
D|----------------------------------------------| pressing    |
A|----------------------------------------------|-------------|
E-----------------------------------------------|-------------|
               day.............


Chorus:
------

(Electric Guitar - w/distortion)
       E                                            Asus
e|-----0--0--0--0--0--------0--0--0--0--0--------|--0--0--0--0---0----------0--0--0--0---0---0--0---|
B|-----0--0--0--0-----0-----0--0--0--0-----0-----|--0--0--0--0-------0------0--0--0--0---0---0--0---|
G|-----1--1--1--1--------1--1--1--1--1--------1--|--2--2--2--2-----------2--2--2--2--2---2---0--0---|
D|-----2--2--2--2-----------2--2--2--2-----------|--2--2--2--2--------------2--2--2--2---2---0--0---|
A|-----2--2--2--2-----------2--2--2--2-----------|--0--0--0--0--------------0--0--0--0---0---0--0---|
E|-----0--0--0--0-----------0--0--0--0-----------|--------------------------------------------------|
              
     C#m                                                Asus
e|----4---4--4--4---------------4--4--4--4-----------|--0--0--0--0---0--0--0---|
B|----4h5-5--5--5----5----------5--5--5--5--5--------|--0--0--0--0---0--0--0---|
G|----6---6--6--6--------6------6--6--6--6-----6-----|--2--2--2--2---2--2--2---|
D|----6---6--6--6------------6--6--6--6--6--------6--|--2--2--2--2---2--2--2---|
A|----4---4--4--4---------------4--4--4--2-----------|--0--0--0--0---0--0--0---|
E|---------------------------------------------------|-------------------------|
                 

       E                                            Asus
e|-----0--0--0--0--0--------0--0--0--0--0--------|--0--0--0--0---0----------0--0--0--0---0---0--0---|
B|-----0--0--0--0-----0-----0--0--0--0-----0-----|--0--0--0--0-------0------0--0--0--0---0---0--0---|
G|-----1--1--1--1--------1--1--1--1--1--------1--|--2--2--2--2-----------2--2--2--2--2---2---0--0---|
D|-----2--2--2--2-----------2--2--2--2-----------|--2--2--2--2--------------2--2--2--2---2---0--0---|
A|-----2--2--2--2-----------2--2--2--2-----------|--0--0--0--0--------------0--0--0--0---0---0--0---|
E|-----0--0--0--0-----------0--0--0--0-----------|--------------------------------------------------|
                 

     C#m                                                Asus
e|----4---4--4--4---------------4--4--4--4-----------|--0--0--0--0---0--0--0---|
B|----4h5-5--5--5----5----------5--5--5--5--5--------|--0--0--0--0---0--0--0---|
G|----6---6--6--6--------6------6--6--6--6-----6-----|--2--2--2--2---2--2--2---|
D|----6---6--6--6------------6--6--6--6--6--------6--|--2--2--2--2---2--2--2---|
A|----4---4--4--4---------------4--4--4--2-----------|--0--0--0--0---0--0--0---|
E|---------------------------------------------------|-------------------------|
                  


Outro:
-----

(Electric Guitar - Clean)
               E
e|-------------5h7-----------|-----------7--------------7--------------|
B|------------------5--------|-----5--------5--------------5-----------|
G|---------------------4-----|--4-----4--------4-----4--------4-----4--|
D|------------------------6--|--------------------6--------------6-----|
A|---------------------------|-----------------------------------------|
E|---------------------------|-----------------------------------------|
   

               Asus
e|-------------4h5-----------|-----------5--------------5--------------|
B|------------------5--------|-----5--------5--------------5-----------|
G|---------------------4-----|--4-----4--------4-----4--------4-----4--|
D|------------------------7--|--------------------7--------------7-----|
A|---------------------------|-----------------------------------------|
E|---------------------------|-----------------------------------------|
               

               C#m
e|-------------2/4-----------|-----------4--------------4--------------|
B|------------------5--------|-----5--------5--------------5-----------|
G|---------------------4-----|--4-----4--------4-----4--------4-----4--|
D|------------------------6--|--------------------6--------------6-----|
A|---------------------------|-----------------------------------------|
E|---------------------------|-----------------------------------------|
               

               Asus
e|-------------4h5-----------|
B|---------------------------|
G|---------------------------|
D|---------------------------|
A|---------------------------|
E----------------------------|
             


thats it.. ツ


legend
------

| *  palm mute
| /  slide up
| \  slide down
| h  hammer-on
| p  pull-off
| ~  vibrato
| b  bend string
=======================================================================

kid©2006™
Comments