Staind - Epiphany Chords & Tabs

 

Epiphany Chords & Tabs

Staind Chords & Tabs

Version: 7 Type: Tab 0 ratings
1 star 2 stars 3 stars 4 stars 5 stars
comments

Epiphany Tab

   
Artist-Staind 
Song  -Epiphany
Written by Staind

Drop D-tuning 

Verse

e-------------------------------------      
B-------------------------------------
G---7-7-7-7-7-7-7-7-7-7-7-7-7-7-7-7---
D---7-7-7-7-7-7-7-7-7-7-7-7-7-7-7-7---
A---0-0-0-0-0-0-0-0-5-5-5-5-5-5-5-5---
D---0-0-0-0-0-0-0-0-5-5-5-5-5-5-5-5---

Chours
e------------------------------------------
B------------------------------------------
G---11-11-11-11-11-11-11-7-7-7-7-7-7-7-7---
D---11-11-11-11-11-11-11-7-7-7-7-7-7-7-7---
A---9--9--9--9--9--9--9--5-5-5-5-5-5-5-5---
D---9--9--9--9--9--9--9--5-5-5-5-5-5-5-5---


 verse 1
e-------------------   
B-------------------
G---7-7-7-7-7-7-7-7-
D---7-7-7-7-7-7-7-7-
A---0-0-0-0-0-0-0-0-
D---0-0-0-0-0-0-0-0-
Your words to me just a whisper

e--------------------     
B---------------------
G---7-7-7-7-7-7-7-7---
D---7-7-7-7-7-7-7-7---
A---5-5-5-5-5-5-5-5---
D---5-5-5-5-5-5-5-5---
Your face is so unclear

e-------------------   
B-------------------
G---7-7-7-7-7-7-7-7-
D---7-7-7-7-7-7-7-7-
A---0-0-0-0-0-0-0-0-
D---0-0-0-0-0-0-0-0-
I try to pay attention

e--------------------     
B---------------------
G---7-7-7-7-7-7-7-7---
D---7-7-7-7-7-7-7-7---
A---5-5-5-5-5-5-5-5---
D---5-5-5-5-5-5-5-5---
Your words just disappear
[ Tab from: http://www.guitartabs.cc/tabs/s/staind/epiphany_tab_ver_7.html ]
 chorus
e------------------------------------------
B------------------------------------------
G---11-11-11-11-11-11-11-7-7-7-7-7-7-7-7---
D---11-11-11-11-11-11-11-7-7-7-7-7-7-7-7---
A---9--9--9--9--9--9--9--5-5-5-5-5-5-5-5---
D---9--9--9--9--9--9--9--5-5-5-5-5-5-5-5---
Cause it's always raining in my head
Forget all the thing's I should have said'

So this is the way you have to play verse and churse. 
----------------------------------------------------------------
 verse 1
Your words to me just a whisper
Your face is so unclear
I try to pay attention
Your words just disappear

 chorus
Cause it's always raining in my head
Forget all the thing's I should have said'

 verse 2
So I speak to you in riddles becuase
My words get in my way
I smoke the whole thin to my head
And I feel it wash away
Cause I can't take anymore of this
I want to come apart. 
or dig myself a little hole
inside your precious heart

 chorus
Cause it's always raining in my head
Forget all the thing's I should have said'

 verse 3
I am nothing more than a little boy
Inside that cries for attention
Though I always try to hide
Cause I talk to you like children
Though I don't know how I feel 
But I know I'll do the right thing
If the right thing is revealed

 chorus
Cause it's always raining in my head
Forget all the thing's I should have said'
 
 Verse
(here you donít have to sing just play until it fade)  

Hope you enjoy it is a perfect tab thanks!(Klodian Burri)

Email me - kodikorn1@yahoo.com
Comments