Staind - Epiphany Chords & Tabs

 

Epiphany Chords & Tabs

Staind Chords & Tabs

Version: 6 Type: Tab 0 ratings
1 star 2 stars 3 stars 4 stars 5 stars
comments

Epiphany Tab

Band: Staind (Aaron Lewis)
Song: Epiphany
Album: Break The Cycle
Year: 2001

Tuning: Drop D down half a step (Db Ab Db Gb Bb Db)

I'm pretty sure this is right....the other tabs are right too....
I saw that was how to play it in the July issue of Guitar World.....
but I like this way better....

Verse:
-0-0-0-0----0-0-0--0-0---0-0-0-0---0-0-0--0-0--0-0-0-0---0-0-0--0-0--0-0-0-0---0-0-0--0-0----
-0-0-0-0----0-0-0--0-0---0-0-0-0---0-0-0--0-0--0-0-0-0---0-0-0--0-0--0-0-0-0---0-0-0--0-0----
-2-2-2-2----2-2-2--2-2---2-2-2-2---2-2-2--2-2--2-2-2-2---2-2-2--2-2--2-2-2-2---2-2-2--2-2----
-0-0-0-0----0-0-0--0-0---0-0-0-0---0-0-0--0-0--0-0-0-0---0-0-0--0-0--0-0-0-0---0-0-0--0-0----
-0-0-0-0----0-0-0--0-0---0-0-0-0---0-0-0--0-0--X-X-X-X---X-X-X--X-X--X-X-X-X---X-X-X--X-X----
-0-0-0-0----0-0-0--0-0---0-0-0-0---0-0-0--0-0--5-5-5-5---5-5-5--5-5--5-5-5-5---5-5-5--5-5----
[ Tab from: http://www.guitartabs.cc/tabs/s/staind/epiphany_tab_ver_6.html ]
Chorus:
--------------------------------------------------------0-0-0--0-0-0--0-0---0-0-0--0-0-0--0-0--
--------------------------------------------------------0-0-0--0-0-0--0-0---0-0-0--0-0-0--0-0--
--------------------------------------------------------0-0-0--0-0-0--0-0---0-0-0--0-0-0--0-0--
-11-11-11-11-11-11-11-11-11-11-11-11-11-11-11-11-11-11--0-0-0--0-0-0--0-0---0-0-0--0-0-0--0-0--
-11-11-11-11-11-11-11-11-11-11-11-11-11-11-11-11-11-11--5-5-5--5-5-5--5-5---5-5-5--5-5-5--5-5--
-9--9--9--9--9--9--9--9--9--9--9--9--9--9--9--9--9--9---5-5-5--5-5-5--5-5---5-5-5--5-5-5--5-5--

End on:
-0--
-0--
-2--
-0--
-0--
-0--

Lyrics:

Your words to me just a whisper
Your faces so unclear
I try to pay attention
Your words just disappear

Huh-huh
Cause' it's always raining in my head
Huh-huh
Forget all the things I should have said

So I speak to you in riddles
Cause' my words get in my way
I smoke the whole thing to my head
and feel it wash away
Cause' I can't take any more of this
I wanna come apart
And dig myself a little hole
inside your precious heart

Huh-huh
Cause' it's always raining in my head
Huh-huh
Forget all the things I should have said

I am nothing more than
a little boy inside
That cries out for attention
yet I always try to hide
Cause' I talk to you like children
Though I don't know how I feel
But I know I'll do the right thing
If the right thing is in field

Cause' it's always raining in my head
Forget all the things I should have said
Comments