Staind - Epiphany Acoustic Chords & Tabs

 

Epiphany Acoustic Chords & Tabs

Staind Chords & Tabs

Version: 2 Type: Tab 2 ratings
1 star 2 stars 3 stars 4 stars 5 stars
comments

Epiphany Acoustic Tab

   
Artist-Staind
Track-Epiphany
Album-Break the cycle

This isn't the proper version but it sounds better than the other tabs I have seen.

Verse:

    E    Am7
[ Tab from: http://www.guitartabs.cc/tabs/s/staind/epiphany_acoustic_tab_ver_2.html ]
E---0-----0--
A---2-----0--
D---2-----2--
G---1-----2--
B---0-----0--
E---0-----0--

  

Chorus:

    
    ?    Am7

E---0-----0--
A---4-----0--
D---6-----2--
G---6-----2--
B---0-----0--
E---0-----0--

This is a quality song.Listen to it to get the strumming patterns.

Tabbed by Birty B ;)
Comments