Staind - Crawl Chords & Tabs

 

Crawl Chords & Tabs

Staind Chords & Tabs

Version: 2 Type: Bass Tab 0 ratings
1 star 2 stars 3 stars 4 stars 5 stars
comments

Crawl Bass Tab

   
Band: Staind
Album: Dysfunction
Song: Crawl
Tabbed By: Alex Miller

I have this tabbed for a 4 and a 5 srting bass.

4-String version   Tuning is low to high(C, A, D, G)

Intro Verse(I don't know how many times u play the
notes but it's really a timing thing. you'll get it
fast)
G:-----------------------
D:-----------------------
A:-------------1-11111111
C:-0-0000-0000-----------

Chorus:
G:--------------------------
D:--------------------------
A:--------------------------
C:--3-------2-------1------0
              "You just repeat that for a while"
[ Tab from: http://www.guitartabs.cc/tabs/s/staind/crawl_btab_ver_2.html ]
G:----------
D:----------
A:------XXXX
C:-XXXX-----

5-string version of the song. just keep it in standard
tuning.

Intro/Verse(Again just get the timing down):
G:---------------------------
D:---------------------------
A:----------------00000000000
E:---------------------------
B:-1-11-1--1-1-1-------------

Chorus:
B:-4------3------2------1

right before the really heavy part you play this:
A:------XXXX
E:----------
B:-XXXX----- 
 
aND tHEN tHATS' IT.


   
I havn't quite got the middle part but just screw with
it for a while and make up something that sounds good
and that's it, bassically pretty easy. id recomend
using a pick.
Comments