Staind - Could It Be Chords & Tabs

 

Could It Be Chords & Tabs

Staind Chords & Tabs

Version: 3 Type: Tab 0 ratings
1 star 2 stars 3 stars 4 stars 5 stars
comments

Could It Be Tab

Artist: Staind
Album: 14 shades of grey
Track: Could it be

Sorry for any mistakes, but I'm quite sure that this is right for the intro.
[ Tab from: http://www.guitartabs.cc/tabs/s/staind/could_it_be_tab_ver_3.html ]
E --------------------------------------------|
B --------------------------------------------|
G --------------------------------------------|
D --6-6-6-6-xx-11-11-11-11-11-11-xx-----------|
A --4-4-4-4-xx--9--9--9--9--9--9-xx-----------|
D --4-4-4-4-xx--9--9--9--9--9--9-xx-----------|


E --------------------------------------------|
B --------------------------------------------|
G --11-11-11-11-10-10-------------------------|
D ---------------------11-11-11-11-11-11------|
A ---9--9--9--9--9--9---9--9--9--9--9--9------|
D ----------------------9--9--9--9--9--9------|

Tabbed by Pete Earnshaw
Comments