Staind - Cant Believe Chords & Tabs

 

Cant Believe Chords & Tabs

Staind Chords & Tabs

Version: 6 Type: Tab 0 ratings
1 star 2 stars 3 stars 4 stars 5 stars
comments

Cant Believe Tab

Tuned down 1/2 step and drop D
VERSE
---------------------
---------------------
----------------8-8-8
-3-3-3-3-3/-6-6-8-8-8
-3-3-3-3-3/-6-6-6-6-6
-3-3-3-3-3/-6-6-6-6-6
PRE-CHORUS/VERSE THINGY
-------------------------------------
-7p5-3h5---7p5-8-10-7p5-3h5----7p5-8-
---------4------------------4--------
-------------------------------------  (2-times)
-------------------------------------
-------------------------------------

I'm not sure about the chorus quite yet, 
but this is enough to impress someone a little bit. 




[ Tab from: http://www.guitartabs.cc/tabs/s/staind/cant_believe_tab_ver_6.html ]
Comments