Stahlhammer - Am Liebsten Von Hinten Chords & Tabs

 

Am Liebsten Von Hinten Chords & Tabs

Stahlhammer Chords & Tabs

Version: 1 Type: Tab 0 ratings
1 star 2 stars 3 stars 4 stars 5 stars
comments

Am Liebsten Von Hinten Tab

   
STAHLHAMMER – AM LIEBSTEN VON HINTEN
>From the Album FEIND HÖRT MIT
Transcribed by Antonio Garza

D Tuning

Intro
|----------------------------------------------------------------|
|----------------------------------------------------------------|
|----------------------------------------------------------------|
|08888---08888---08888---08888---08888---08888---08888---08888---|
|08888---08888---08888—--08888---08888---08888---08888---08888---|
|0888800-0888800-0888800-0888800-0888800-0888800-0888800-0888800-|
 pm   ..      ..      ..      ..      ..      ..      ..      ..

 Main Riff                                                 Verse 1
|--------------------------------------------------------||-----------------
--------
|--------------------------------------------------------||-----------------
--------
|--------------------------------------------------------||-----------------
--------
|0-0707-07707---0707-07707----0707-07707----0707-07707---||-7-7---7-7---7-7-
--7-7---
|0-0707-07707---0707-07707----0707-07707----0707-07707---||-7-7---7-7---7-7-
--7-7---
|0-0707-0770700-0707-0770700--0707-0770700--0707-0770700—||-7-700-7-700-7-70
0-7-700-
 pm          ..           ..            ..            ..       ..    ..
..    ..

 Pre-Verse                     Verse 2                    Pre-Verse
|----------------------------||-------------------------||------------------
----------
|----------------------------||-------------------------||------------------
----------
|----------------------------||-------------------------||------------------
----------
|0-0707-07707---0707-07707---||-7-7---7-7---7-7---7-7---||0-0707-07707---070
7-07707---
|0-0707-07707---0707-07707---||-7-7---7-7---7-7---7-7---||0-0707-07707---070
7-07707---
|0-0707-0770700-0707-0770700-||-7-700-7-700-7-700-7-700-||0-0707-0770700-070
7-0770700-
 pm          ..           ..       ..    ..    ..    ..               ..
..

Verse 3                    Pre-Verse                     Verse 4
-------------------------||----------------------------||-------------------
------|
-------------------------||----------------------------||-------------------
------|
-------------------------||----------------------------||-------------------
------|
-7-7---7-7---7-7---7-7---||0-0707-07707---0707-07707---||-7-7---7-7---7-7---
7-7---|
-7-7---7-7---7-7---7-7---||0-0707-07707---0707-07707---||-7-7---7-7---7-7---
7-7---|
-7-700-7-700-7-700-7-700-||0-0707-0770700-0707-0770700-||-7-700-7-700-7-700-
7-700-|
pm  ..    ..    ..    ..               ..           ..       ..    ..    ..
..

----------------------------||----------------------------------------------
-------
----------------------------||----------------------------------------------
-------
----------------------------||----------------------------------------------
-------
0-0707-07707---0707-07707---||-2---5---9----2---5---9----2---5---9----2---7-
--10---
0-0707-07707---0707-07707---||-2---5---9----2---5---9----2---5---9----2---7-
--10---
0-0707-0770700-0707-0770700-||-0---3---7----0---3---7----0---3---7----0---5-
--8----
pm          ..           ..
                                                           Verse 5
|--------------------------------------------------------||-----------------
--------
|--------------------------------------------------------||-----------------
--------
|--------------------------------------------------------||-----------------
--------
|0-0707-07707---0707-07707----0707-07707----0707-07707---||-7-7---7-7---7-7-
--7-7---
|0-0707-07707---0707-07707----0707-07707----0707-07707---||-7-7---7-7---7-7-
--7-7---
|0-0707-0770700-0707-0770700--0707-0770700--0707-0770700—||-7-700-7-700-7-70
0-7-700-
 pm          ..           ..            ..            ..       ..    ..
..    ..
[ Tab from: http://www.guitartabs.cc/tabs/s/stahlhammer/am_liebsten_von_hinten_tab.html ]
                               Verse 6
|----------------------------||-------------------------||------------------
----------
|----------------------------||-------------------------||------------------
----------
|----------------------------||-------------------------||------------------
----------
|0-0707-07707---0707-07707---||-7-7---7-7---7-7---7-7---||0-0707-0770700-070
7-07707---
|0-0707-07707---0707-07707---||-7-7---7-7---7-7---7-7---||0-0707-0770700-070
7-07707---
|0-0707-0770700-0707-0770700-||-7-700-7-700-7-700-7-700-||0-0707-0770700-070
7-0770700-
 pm          ..           ..       ..    ..    ..    ..               ..
..

 Verse 7
|---------------------------||----------------------------|
|---------------------------||----------------------------|
|---------------------------||----------------------------|
|7-7----7-7----7-7----7-7---||0-0707-07707---0707-07707---|
|7-7----7-7----7-7----7-7---||0-0707-07707---0707-07707---|
|7-700--7-700--7-700--7-700-||0-0707-0770700-0707-0770700-|
 pm ..     ..     ..     ..               ..           ..

 Verse 8
|------------------------------||----------------------------|
|------------------------------||----------------------------|
|------------------------------||----------------------------|
|7-7-----7-7-----7-7-----7-7---||0-0707-07707---0707-07707---|
|7-7-----7-7-----7-7-----7-7---||0-0707-07707---0707-07707---|
|7-700---7-700---7-700---7-700-||0-0707-0770700-0707-0770700-|
 pm ..      ..      ..      ..               ..           ..

|-----------------------------------------------------|
|-----------------------------------------------------|
|-----------------------------------------------------|
|-2---5---9---2---5---9----2---5---9----2---7---10----|
|-2---5---9---2---5---9----2---5---9----2---7---10----|
|-0---3---7---0---3---7----0---3---7----0---5---8-----|

|--------------------------------------------------------|
|--------------------------------------------------------|
|--------------------------------------------------------|
|0-0707-07707---0707-07707----0707-07707----0707-07707---|
|0-0707-07707---0707-07707----0707-07707----0707-07707---|
|0-0707-0770700-0707-0770700--0707-0770700--0707-0770700—|
 pm          ..           ..            ..            ..

Solo (Only bass accompains solo)

|-----------------------------------------------------|
|-----------------------------------------------------|
|-----------------------------------------------------|
|-2---5---9----2---5---9----2---5---9----2---7---10---|
|-2---5---9----2---5---9----2---5---9----2---7---10---|
|-0---3---7----0---3---7----0---3---7----0---5---8----|

|--------------------------------------------------------|
|--------------------------------------------------------|
|--------------------------------------------------------|
|0-0707-07707---0707-07707----0707-07707----0707-07707---|
|0-0707-07707---0707-07707----0707-07707----0707-07707---|
|0-0707-0770700-0707-0770700--0707-0770700--0707-0770700—|
 pm          ..           ..            ..            ..

|--------------------------------------------------------|
|--------------------------------------------------------|
|--------------------------------------------------------|
|0-0707-07707---0707-07707----0707-07707----0707-07707---|
|0-0707-07707---0707-07707----0707-07707----0707-07707---|
|0-0707-0770700-0707-0770700--0707-0770700--0707-0770700—|
 pm          ..           ..            ..            ..

Pre-End
|------------------------------------------------------
|------------------------------------------------------
|------------------------------------------------------
|07777-07777-07777-07777-07777-07777-07777-07777-07777-
|07777-07777-07777-07777-07777-07777-07777-07777-07777-
|07777-07777-07777-07777-07777-07777-07777-07777-07777-
pm     .     .     .     .     .     .     .     .
                                                       End
------------------------------------------------------||--------------------
-----------|
------------------------------------------------------||--------------------
-----------|
------------------------------------------------------||--------------------
-----------|
07777-07777-07777-07777-07777-07777-07777-07777-07777-||999999999-1111111111
11111111-15|
07777-07777-07777-07777-07777-07777-07777-07777-07777-||999999999-1111111111
11111111-15|
07777-07777-07777-07777-07777-07777-07777-07777-07777-||777777777-9-9-9-9-9-
9-9-9-9—-13|
.     .     .     .     .     .     .     .     .
Comments