Staggered Crossing - Perfect Prize Chords & Tabs

 

Perfect Prize Chords & Tabs

Staggered Crossing Chords & Tabs

Version: 1 Type: Tab 0 ratings
1 star 2 stars 3 stars 4 stars 5 stars
comments

Perfect Prize Tab

Band: Staggered Crossing 
Song: Perfect Prize
Album: Burgundy & Blue  
Your Tabber for tonight will be: Eric Huynh'er

Email: erichuynh@shaw.ca

Drop D Tuning

~ = Vibrato
^ = bend up
h = hammer on 
P = pull off
m = palm mute


Intro
|--------------------------------------------------------------------------|
|--------------------------------------------------------------------------|
|--------------------------------------------------------------------------|
|-0-0-0-----1--0-------0---------------------------------------------------|
|-0-0-0-----1--00h1-2---0h2p0p2p0p2---------------------------------------|
|-0-0-0-----1--0----------------------^2-0---------------------------------| X 2

|--------------------------------------------------33h---------3----------|
|--------------------------------------------------33h5p0p5p0----3--------|
|--------------------------------------------------00h--------------------|
|-2h4-2---0---------------0-------2h4-2---0-------00h--------------------|
|-------4------0---0---2h0-----0-0-------4-----0---------------------------|
|-----------4~---4^----------0---------------4-----------------------------|

Verse
|--------------------------------------------------33h---------3----------|
|--------------------------------------------------33h5p0p5p0----3--------|
|--------------------------------------------------00h--------------------|
|-2h4-2---0---------------0-------2h4-2---0-------00h--------------------|
|-------4------0---0---2h0-----0-0-------4-----0---------------------------|
|-----------4~---4^----------0---------------4-----------------------------| X 3

Pre-chorus
|--------------------------------------------------------------------------|
|--------------------------------------------------------------------------|
|--------------------------------------------------------------------------|
|-33m-3m-3m-3m-3m---5-5m-5m-5m-5m-5m--------------------------------------|
|-33m-3m-3m-3m-3m---5-5m-5m-5m-5m-5m--------------------------------------|
|-33m-3m-3m-3m-3m---55m-5m-5m-5m-5m--------------------------------------| X 2

Chorus
|--------------------------------------------------------------------------|
|--------------------------------------------------------------------------|
|--------------------------------------------------------------------------|
|-0-0--7-7--0----0-0--7-7-7--0----0-0--7-7--0----0-0--7-5---5m-5m-5m-5m-5m-|
|-0-0--7-7--0----00--7-7-7--0----0-0--7-7--0----0-0--7-5---5m-5m-5m-5m-5m-|
|-0-0--7-7--0----0-0--7-7-7--0----0-0--7-7--0----0-0--7-5---5m-5m-5m-5m-5m-|


|--------------------------------------------------------------------------|
|--------------------------------------------------------------------------|
|--------------------------------------------------------------------------|
|-33m-3m-3m-3m-3m---5-5m-5m-5m-5m-5m--------------------------------------|
|-33m-3m-3m-3m-3m---5-5m-5m-5m-5m-5m--------------------------------------|
|-33m-3m-3m-3m-3m---55m-5m-5m-5m-5m--------------------------------------|

Pre-Verse
|--------------------------------------------------33h---------3----------|
|--------------------------------------------------33h5p0p5p0----3--------|
|--------------------------------------------------00h--------------------|
|-2h4-2---0---------------0-------2h4-2---0-------00h--------------------|
|-------4------0---0---2h0-----0-0-------4-----0---------------------------|
|-----------4~---4^----------0---------------4-----------------------------|



Verse2
|--------------------------------------------------33h---------3----------|
|--------------------------------------------------33h5p0p5p0----3--------|
|--------------------------------------------------00h--------------------|
|-2h4-2---0---------------0-------2h4-2---0-------00h--------------------|
|-------4------0---0---2h0-----0-0-------4-----0---------------------------|
|-----------4~---4^----------0---------------4-----------------------------| X 2

Pre-chorus
|--------------------------------------------------------------------------|
|--------------------------------------------------------------------------|
|--------------------------------------------------------------------------|
|-33m-3m-3m-3m-3m---5-5m-5m-5m-5m-5m--------------------------------------|
|-33m-3m-3m-3m-3m---5-5m-5m-5m-5m-5m--------------------------------------|
|-33m-3m-3m-3m-3m---55m-5m-5m-5m-5m--------------------------------------| X 2
[ Tab from: http://www.guitartabs.cc/tabs/s/staggered_crossing/perfect_prize_tab.html ]
Chorus
|--------------------------------------------------------------------------|
|--------------------------------------------------------------------------|
|--------------------------------------------------------------------------|
|-0-0--7-7--0----0-0--7-7-7--0----0-0--7-7--0----0-0--7-5---5m-5m-5m-5m-5m-|
|-0-0--7-7--0----00--7-7-7--0----0-0--7-7--0----0-0--7-5---5m-5m-5m-5m-5m-|
|-0-0--7-7--0----0-0--7-7-7--0----0-0--7-7--0----0-0--7-5---5m-5m-5m-5m-5m-| X 2
(For this chorus first time through there's a slight, slight change, they do
the palm mute thing barred on 5 twice if you listen to the song) 

|--------------------------------------------------------------------------|
|--------------------------------------------------------------------------|
|--------------------------------------------------------------------------|
|-33m-3m-3m-3m-3m---5-5m-5m-5m-5m-5m--------------------------------------|
|-33m-3m-3m-3m-3m---5-5m-5m-5m-5m-5m--------------------------------------|
|-33m-3m-3m-3m-3m---55m-5m-5m-5m-5m--------------------------------------|

Back to intro
|--------------------------------------------------------------------------|
|--------------------------------------------------------------------------|
|--------------------------------------------------------------------------|
|-0-0-0-----1--0-------0---------------------------------------------------|
|-0-0-0-----1--00h1-2---0h2p0p2p0p2---------------------------------------|
|-0-0-0-----1--0----------------------^2-0---------------------------------| X 2

|--------------------------------------------------33h---------3----------|
|--------------------------------------------------33h5p0p5p0----3--------|
|--------------------------------------------------00h--------------------|
|-2h4-2---0---------------0-------2h4-2---0-------00h--------------------|
|-------4------0---0---2h0-----0-0-------4-----0---------------------------|
|-----------4~---4^----------0---------------4-----------------------------|

Verse 3
|--------------------------------------------------33h---------3----------|
|--------------------------------------------------33h5p0p5p0----3--------|
|--------------------------------------------------00h--------------------|
|-2h4-2---0---------------0-------2h4-2---0-------00h--------------------|
|-------4------0---0---2h0-----0-0-------4-----0---------------------------|
|-----------4~---4^----------0---------------4-----------------------------|

Pre-chorus
|--------------------------------------------------------------------------|
|--------------------------------------------------------------------------|
|--------------------------------------------------------------------------|
|-33m-3m-3m-3m-3m---5-5m-5m-5m-5m-5m--------------------------------------|
|-33m-3m-3m-3m-3m---5-5m-5m-5m-5m-5m--------------------------------------|
|-33m-3m-3m-3m-3m---55m-5m-5m-5m-5m--------------------------------------|







Chorus
|--------------------------------------------------------------------------|
|--------------------------------------------------------------------------|
|--------------------------------------------------------------------------|
|-0-0--7-7--0----0-0--7-7-7--0----0-0--7-7--0----0-0--7-5---5m-5m-5m-5m-5m-|
|-0-0--7-7--0----00--7-7-7--0----0-0--7-7--0----0-0--7-5---5m-5m-5m-5m-5m-|
|-0-0--7-7--0----0-0--7-7-7--0----0-0--7-7--0----0-0--7-5---5m-5m-5m-5m-5m-| X 3
(Here's another dumb slight change with the mute thing again, they do the
palm mute thing barred on 5 twice through the first 2 times you play it,
the 3rd time through you do it only once.)

|--------------------------------------------------------------------------|
|--------------------------------------------------------------------------|
|--------------------------------------------------------------------------|
|-33m-3m-3m-3m-3m---5-5m-5m-5m-5m-5m--------------------------------------|
|-33m-3m-3m-3m-3m---5-5m-5m-5m-5m-5m--------------------------------------|
|-33m-3m-3m-3m-3m---55m-5m-5m-5m-5m--------------------------------------|

Back to first part of intro
|--------------------------------------------------------------------------|
|--------------------------------------------------------------------------|
|--------------------------------------------------------------------------|
|-0-0-0-----1--0-------0---------------------------------------------------|
|-0-0-0-----1--00h1-2---0h2p0p2p0p2---------------------------------------|
|-0-0-0-----1--0----------------------^2-0---------------------------------|

|--------------------------------------------------------------------------|
|--------------------------------------------------------------------------|
|--------------------------------------------------------------------------|
|-0-0-0-----1--0-------0-----------------0---------------------------------|
|-0-0-0-----1--00h1-2---0h2p0p2p0p2-----0---------------------------------|
|-0-0-0-----1--0----------------------^2-0---------------------------------|


This is my first tab, I know its crap, but helpful feedback will be much appreciated.
Please email me. =)
Comments