Staggered Crossing - Millions Works Of Art Chords & Tabs

 

Millions Works Of Art Chords & Tabs

Staggered Crossing Chords & Tabs

Version: 1 Type: Tab 0 ratings
1 star 2 stars 3 stars 4 stars 5 stars
comments

Millions Works Of Art Tab

   
Band:Staggered Crossing
Tuning Standard tuning
Tabber:Joey Kakegamic (joey_kakegamic@otmail.com
Intro:

     G     G/F#  G/E?            G    C     G
E |--3------3-----3----3-3-3-----3----0-----3--------|
B |--3------3-----3----3-3-3-----3----1-----3--------|
G |--0------0-----0----0-0-0-----0----0-----0--------|
D |--0------0-----2----0-0-2-----0----2-----0--------|
A |--2------X-----2----2-X-2-----2----3-----2--------|
e |--3------2-----0----3-2-0-----3----------3--------|

VERSES:
      G    F#       C
E |-----------------0---3-3-3----3--0--3-------------|
B |--0-----0--------1---3-3-3----3--1--3-------------|
G |--0-----0--------2---0-0-0----0--0--0-------------|
D |--0-----0--------0---0-0-2----0--2--0-------------|
A |--x-----x--------3---2-X-2----2--3--2-------------|
e |--33333-22222--------3-2-0----3-----3-------------|
     palm mute
[ Tab from: http://www.guitartabs.cc/tabs/s/staggered_crossing/millions_works_of_art_tab.html ]
Chorus:
     D     C       G         G    C   G      end chorus with C
E |--2-----0-------3-3-3-----3----0---3-------------0---------|
B |--3-----1-------3-3-3-----3----1---3-------------1---------|
G |--2-----0-------0-0-0-----0----0---0-------------0---------|
D |--0-----2-------0-0-2-----0----2---0-------------2---------|
A |--------3-------2-X-2-----2----3---2-------------3---------|
e |----------------3-2-0-----3--------3-----------------------|

Post chorus riff:
E |---------------------------------------------------|
B |---------------------------------------------------|
G |---0h2--0--------0---------------------------------|
D |-----------0h1h2---2p1p0---------------------------|
A |---------------------------------------------------|
e |---------------------------------------------------|

Bridge:
     G    C9     A G  D
E |--3-3---3-3---0-3--2-------------------------------|
B |--3-3---3-3---2-0--3-------------------------------|
G |--0-0---0-0---2-0--2-------------------------------|
D |--0-0---2-X---2-0--0-------------------------------|
A |--2-X---3-2---0-2----------------------------------|
e |--3-2-----------3----------------------------------|

Then repeat the A, G, D and use that for the outro as well.

Small solo at the end:

E |---------------------------------------------------|
B |---------------------------------------------------|
G |----/9--7--5---------------------------------------|
D |--------------7--5--5/7----------------------------|
A |---------------------------------------------------|
e |---------------------------------------------------|
Comments