Staggered Crossing - Business As Usual Chords & Tabs

 

Business As Usual Chords & Tabs

Staggered Crossing Chords & Tabs

Version: 1 Type: Tab 0 ratings
1 star 2 stars 3 stars 4 stars 5 stars
comments

Business As Usual Tab

   
Band: Staggered Crossing
Tabber: Joey Kakegamic (joey_kakegamic@hotmail.com
Commects This Songs Pretty Right im sure im 100% Right


Intro & Fills:

   B B  B?
E ----------------------------------------|
B ----------------------------------------|
G ----------------------------------------|
D -4-4--5---4-4-4-4-4--5---4-4-4-4-4--5---|
A -2-2--2---2-2-2-2-2--2---2-2-2-2-2--2---|
e ----------------------------------------|

E -------------------------|
B -------------------------|
G -------------------------|
D -4-4-4--2-2-4-4-0-0-4-4--|
A -2-2-2-------------------|
e -------------------------|


Verse:  Play these little notes. You can also
play the power chords lightly (muted) instead.

Guitar1:
       Bm    F#m   G     D
E -----2--2--2--2--3--3--5--5-------------|
B -----3--3--2--2--3--3--7--7-------------|
G -----4--4--2--2--4--4--7--7-------------|
D ----------------------------------------|
A ----------------------------------------|
e ----------------------------------------|
[ Tab from: http://www.guitartabs.cc/tabs/s/staggered_crossing/business_as_usual_tab.html ]
Guitar 2 (on 5th time around)
    Bm  F#m G   D
E ----2---2---3---2---------------------------|
B ---3-3-2-2-3-3-3-3--------------------------| repeat as required
G --4---2---4---2-----------------------------|
D --------------------------------------------|
A --------------------------------------------|
e --------------------------------------------|

Fill: Happens randomly throughout verses. Not
      sure if its totally correct or not.

E ---2-3-3/5--3--2--3/5--5-5-3-2--------------|
B ---3-3-3/5--3--3--3/5--5-5-3-3--------------|
G --------------------------------------------|
D --------------------------------------------|
A --------------------------------------------|
e --------------------------------------------|


Chorus: Enter Distortion.
     E     B         G     D
E --------------------------------------------|
B --------------------------------------------|
G ---------4-4-4-4-4-------7-7-7-7-7----------|
D ---2-2-2-4-4-4-4-4-5-5-5-7-7-7-7-7----------|
A ---2-2-2-2-2-2-2-2-5-5-5-5-5-5-5-5----------|
e ---0-0-0-----------3-3-3--------------------|


Post Chorus:
     F#       B                A    G
E ---22222222-22222222----|----0----3---3p2-0-|
B ---22222222-44444444----|----2----3---------|
G ---33333333-44444444-- .|----2----0---------|
D ---44444444-44444444-- .|----2----0---------|
A ---44444444-22222222----|----0----2---------|
e ---22222222-------------|---------3---------|
Comments