Stage Dolls - Hard To Say Goodbye Chords & Tabs

 

Hard To Say Goodbye Chords & Tabs

Stage Dolls Chords & Tabs

Version: 1 Type: Tab 0 ratings
1 star 2 stars 3 stars 4 stars 5 stars
comments

Hard To Say Goodbye Tab

   
----------------------------------------------------------------------------
	           Hard To Say Goodbye by Stage Dolls
----------------------------------------------------------------------------

Tabbed by: RHCP
Email: zakkwylde4517@hotmail.com

Tuning:EADGBe

         A                            C#m
Verse 1: Johnny put a shotgun to his head
                              F#m
         Rolled the dice and died
                            A   E
         Late to say you're sorry
         A                               C#m
         Living on the edge for much to long
                      F#m
         Tried to carry on
                          A   C#m
         Hunting down the glory
   

         D                               A  
Bridge:  Say it will be sunshine after rain u-hu
         D                               C#m         
         I wonder if something stays the same u-hu
         F#m                    A         E    A
         Close your eyes, and dream you life away


                  A     E     F#m   D
Refrain: Hard to say goodbye
                      A         E   F#m  D
         Spread your wings and fly
                  A     E
         Hard to say goodbye
         D                   A  
         When we've just said hello


         A                     C#m
Verse 2: Somewhere down highway 55
                           F#m
         Pulled up to the side
                          A    E
         Thats the end of story
         A                           C#m 
         Your body gets out of this alive
                             F#m
         Some live for the pride
                               A   C#m
         And some live for the glory
  
[ Tab from: http://www.guitartabs.cc/tabs/s/stage_dolls/hard_to_say_goodbye_tab.html ]
         D                                       A
Bridge:  They say there will be sunshine after rain
         D                             C#m
         Wonder if something stays the same
         F#m                   A         E    A
         Close your eyes and dream your life away


                       A      E   F#m  D         
Refrain: It's hard to say goodbye
                       A        E   F#m  D
         Spread your wings and fly
                  A     E
         Hard to say goodbye
         D                     A 
         When we've just said hello

(repeat till fade out)


Solo: /  -  slide
      p  -  pull off
      b  -  bend
      r  -  release bend


e|-------------------------------------------------------------------------|
B|-------------------------------------------------------------------------|
G|---/11-------------------------------------------------------------------|
D|----------11--9--7--9/11-11----11p9p7-9-7-7------7------------7-7--------|
A|-----------------------------------------------9---9-7-7----9-----9------|
E|-------------------------------------------------------------------------|

e|-----------------------------------------------------------------b19-----|
B|-----------------------------------/19-19-17-15----17-19-17--------------|
G|--/14-14-13-11-----/13-13-11-9-------------------------------------------|
D|-------------------------------------------------------------------------|
A|-------------------------------------------------------------------------|
E|-------------------------------------------------------------------------|

e|--br19-17-b19--19--------------------------------------------------------|
B|-------------------------------------------------------------------------|
G|-------------------------------------------------------------------------|
D|-------------------------------------------------------------------------|
A|-------------------------------------------------------------------------|
E|-------------------------------------------------------------------------|
Comments