Stacie Orrico - More To Life Chords & Tabs

 

More To Life Chords & Tabs

Stacie Orrico Chords & Tabs

Version: 1 Type: Chords 0 ratings
1 star 2 stars 3 stars 4 stars 5 stars
comments

More To Life Chords

   
---------------------------------------------------------------------------
             MORE TO LIFE(Theres Gotta Be) - Stacie Orrico
---------------------------------------------------------------------------
www.stacieorrico.com
Tabbed by:James Stowers
Email:james_stowers@hotmail.com

Im doin this from memory so there might be mistakes.

Tuning:Standard

Intro:

|  Fm7   C#  |    --    |x2

e|--------1-------------------------------------------------------------|
B|------1---------6-------6---------------------------------------------|
G|----1---------------6-------------------------------------------------|
D|------------------6---6-----------------------------------------------|
A|----------------------------------------------------------------------|
E|-1--------------------------------------------------------------------|


Verse 1:
[ Tab from: http://www.guitartabs.cc/tabs/s/stacie_orrico/more_to_life_crd.html ]
|   Fm7   C#   |   D#   G#   |   Fm7   C#   |   D#    |
|   Fm7   C#   |   D#   G#   |      C#      |   D#    |

Chorus:

|   Fm7   C#   |   G#   D#   |   Fm7   C#   |   D#    |x2

Leading Into Verse:   |   Fm7   C#   |  G# - - - |

Verse:

|   Fm7   C#   |   D#   G#   |   Fm7   C#   |    D#   |
|   Fm7   C#   |     D#      |

Chorus:
Bridge:

|   C   Fm7   |   C#   D#   |x3
|     F#      |     D#      |

Chorus: Key Change

|   F#m7   D   |   A    E   |   F#m7   D   |    E     |x2


repeat chorus till end.
Comments