Stabilo Boss - Everybody Chords & Tabs

 

Everybody Chords & Tabs

Stabilo Boss Chords & Tabs

Version: 7 Type: Tab 0 ratings
1 star 2 stars 3 stars 4 stars 5 stars
comments

Everybody Tab

   
- - - ------------------
Stabilo Boss - Everybody
Tabbed by Jonathan Seely
------------------ - - -
     Hey Everyone, this is only like my 3rd tab that i've posted so if it's wrong in
some parts you'll know why lol... anyways This song is an awsome acoustic song and I
had alot of fun learning how to play it, hopfully you will too. I tryed to find a good
tab to learn from it, but found alot of broken and incorrect tabs so I though I would
just start from scratch and make this one.  I think it's pretty close and the variations
I think I got all of them, the timing might be a little off aswell, but if theres any
mistakes/corrections, or if you just want to say 'Hi", please email me at hobo_joe_66@hotmail.com

Verse 1:Intro

   Am         F          G                           Am         F         G
E|---------------------------------------------------------------------------3--------|
B|-----0h1p0-----------------3-------------------0h1-----0h1p0---------------3--------|
G|----------0------2---------4-4h5p4-2p0-----0h2--------------0-----2-----------------|
D|-----------------3---------------------0h2------------------------3------------5----|
A|-0-0---------3-3--3-3--5-5-------------------------0-0--------3-3--3-3--5-5---------|
E|-------------1-1--1-1--3-3------------------------------------1-1--1-1--3-3---3-----|
   * *         * *  * *  * *                         * *        * *  * *  * *              

   Am                      F         G                           Am          F
E|------------------------------------------------------------------------------------|
B|-0--1--3p0-1------0h1p0---------------3-------------------0h1-----0h1p0-------------|
G|-0--2------------------0------2-------4-4h5p4-2p0-----0h2--------------0------2-----|
D|------------------------------3-------------------0h2-------------------------3-----|
A|--------------0-0--------3-3--3-3--5-5-------------------------0-0---------3-3--3-3-|
E|-------------------------1-1--1-1--3-3-------------------------------------1-1--1-1-|
                * *        * *  * *  * *                         * *         * *  * *    

   G
E|-------3--------------|
B|--------------0h1p0---|
G|-----4-------------0--|
D|---5------------------|
A|----------------------|
E|-3--------------------|

   Am          F         G                           Am         F         G
E|---------------------------------------------------------------------------3--------|
B|-----0h1p0-----------------3-------------------0h1-----0h1p0---------------3--------|
G|----------0------2---------4-4h5p4-2p0-----0h2--------------0-----2-----------------|
D|-----------------3---------------------0h2------------------------3------------5----|
A|-0-0---------3-3--3-3--5-5-------------------------0-0--------3-3--3-3--5-5---------|
E|-------------1-1--1-1--3-3------------------------------------1-1--1-1--3-3---3-----|
   * *         * *  * *  * *                         * *        * *  * *  * *              

   Am                      F         G                           Am          F
E|--------------------0---------------------------------------------------------------|
B|-0--1--3p0-1----0h1--0-----------------3-------------------0h1-----1p0--------------|
G|-0--2------------------------2---------4-4h5p4-2p0-----0h2--------------0------2----|
D|-----------------------------3---------------------0h2-------------------------3----|
A|--------------0----------3-3--3-3--5-5-------------------------0-0---------3-3--3-3-|
E|-------------------------1-1--1-1--3-3-------------------------------------1-1--1-1-|
                *          * *  * *  * *                         * *         * *  * *    
   G
E|-3-3---3-3-|
B|-3-3---3-3-|
G|-4-4---4-4-|
D|-5-5---5-5-|
A|-5-5---5-5-|
E|-3-3---3-3-|


Chorus 1: Guitar 2 repeats itself 4 times in background

Guitar 1
   Am           F            G
E|-0--0-0-0-0-0-1--1-1-1-1-1-3--3-x-3-3--3--3-3-3-3-|
B|-1--1-1-1-1-1-1--1-1-1-1-1-3--3-x-3-3--3--3-3-3-3-|
G|-2--2-2-2-2-2-2--2-2-2-2-2-4--4-x-4-4--4--4-4-4-4-| X3
D|-2--2-2-2-2-2-3--3-3-3-3-3-5--5-x-5-5--5--5-5-5-5-|   Then play below 
A|-0--0-0-0-0-0-3--3-3-3-3-3-5--5-x-5-5--5--5-5-5-5-|     part
E|-x--x-x-x-x-x-1--1-1-1-1-1-3--3-x-3-3--3--3-3-3-3-|

E|-0--0-0-0-0-0-1--1-1-1-1-1-3--3-x-3-3-------------|
B|-1--1-1-1-1-1-1--1-1-1-1-1-3--3-x-3-3-------------|
G|-2--2-2-2-2-2-2--2-2-2-2-2-4--4-x-4-4---4h5p4-2-0-|
D|-2--2-2-2-2-2-3--3-3-3-3-3-5--5-x-5-5-------------|
A|-0--0-0-0-0-0-3--3-3-3-3-3-5--5-x-5-5-------------|
E|-x--x-x-x-x-x-1--1-1-1-1-1-3--3-x-3-3-------------|

Guitar 2
   Am     F      G
E|-------------------|
B|-------------------|
G|-------------------| X4
D|--2-0----3-2-------|
A|-0----3------3/5---|
E|--------1----------|


Verse 2: Guitar 2 repeats itself 4 times with the last time a bit different.

Guitar 1
   Am          F         G                           Am         F         G
E|---------------------------------------------------------------------------3--------|
B|-----0h1p0-----------------3-------------------0h1-----0h1p0---------------3--------|
G|----------0------2---------4-4h5p4-2p0-----0h2--------------0-----2-----------------|
D|-----------------3---------------------0h2------------------------3------------5----|
A|-0-0---------3-3--3-3--5-5-------------------------0-0--------3-3--3-3--5-5---------|
E|-------------1-1--1-1--3-3------------------------------------1-1--1-1--3-3---3-----|
   * *         * *  * *  * *                         * *        * *  * *  * *              
[ Tab from: http://www.guitartabs.cc/tabs/s/stabilo_boss/everybody_tab_ver_7.html ]
   Am          F            G                                     Am           F
E|--------------------------------------------------------------------------------------|
B|-0--1--3p0-1-----0h1p0------------------3---------------------------0h1p0-------------|
G|-0--2-----------------0-------2---------4-4h5p4----0h2-2/4\2-0-------------0-----2----|
D|------------------------------3-----------------0h2------------------------------3----|
A|-------------0-0----------3-3--3-3--5-5-------------------------0-0----------3-3--3-3-|
E|--------------------------1-1--1-1--3-3--------------------------------------1-1--1-1-|
               * *          * *  * *  * *                         * *          * *  * *    
   G
E|-3-3-3-3-3-3--3-x-3-|
B|-3-3-3-3-3-3--3-x-3-|
G|-4-4-4-4-4-4--4-x-4-|
D|-5-5-5-5-5-5--5-x-5-|
A|-5-5-5-5-5-5--5-x-5-|
E|-3-3-3-3-3-3--3-x-3-|
 

Guitar 2: play this throughout verse

   Am   F   G
E|--------------|
B|---10---6---8-|
G|--9----5---7--| X3
D|-7----3---5---|
A|--------------|
E|--------------|

   Am   F
E|--------------|
B|---10---6-----|
G|--9----5------|
D|-7----3-------|
A|--------------|
E|--------------|


Chorus 2:

Guitar 1
   Am           F            G
E|-0--0-0-0-0-0-1--1-1-1-1-1-3--3-x-3-3--3--3-3-3-3-|
B|-1--1-1-1-1-1-1--1-1-1-1-1-3--3-x-3-3--3--3-3-3-3-|
G|-2--2-2-2-2-2-2--2-2-2-2-2-4--4-x-4-4--4--4-4-4-4-| X4
D|-2--2-2-2-2-2-3--3-3-3-3-3-5--5-x-5-5--5--5-5-5-5-|
A|-0--0-0-0-0-0-3--3-3-3-3-3-5--5-x-5-5--5--5-5-5-5-|
E|-x--x-x-x-x-x-1--1-1-1-1-1-3--3-x-3-3--3--3-3-3-3-|


Guitar 2
   Am     F      G
E|-------------------|
B|-------------------|
G|-------------------| X4
D|--2-0----3-2-------|
A|-0----3------3/5---|
E|--------1----------|

Solo:  Play Chorus 2 behind

E|-----------------------------------------------------------------|
B|-12-12b-12r-10/8-10-10--10-8-------------------------------------|
G|-----------------------------9-7~-5-7-7b8r7-----5----------------|
D|--------------------------------------------5/7---7-7~-----------|
A|-----------------------------------------------------------------|
E|-----------------------------------------------------------------|

E|-----------------------------------------------------------------|
B|-12b-8-10-10--13-13/15-13-15-15b16r15-13-15-8/10-13-10-10--------|
G|-----------------------------------------------------------------|
D|-----------------------------------------------------------------|
A|-----------------------------------------------------------------|
E|-----------------------------------------------------------------|


E|-----------------------------------------------|
B|-10p9p8-------10-------------------------------|
G|--------9p8p7----------------------------------|
D|-----------------------------------------------|
A|-----------------7~---7/8/9-9--9-9-9-9/10------|
E|-----------------------------------------------|

E|-----------------------------------------------|
B|-10-10p9p8-------10----------------------------|
G|-----------9p8p7-------------------------------|
D|-----------------------------------------------|
A|--------------------7~---7-7/8/9-9~-9/10-9~-7~-|
E|-----------------------------------------------|

After solo, continue with 'Chorus 2' 1 more time, then play

Interlude:

E|---------|
B|---------|
G|-5p4-2p0-|
D|---------|
A|---------|
E|---------|

   Am          F         G                      
E|-------------------------------------------|
B|-----0h1p0-----------------3---------------|
G|----------0------2-----------4h5p4-----0h2-|
D|-----------------3-----------------0h2-----|
A|-0-0---------3-3--3-3--5-5-----------------|
E|-------------1-1--1-1--3-3-----------------|
   * *         * *  * *  * *                 

Verse 3/Ending:

   Am          F         G                           Am         F         G
E|---------------------------------------------------------------------------3--------|
B|-----0h1p0-----------------3-------------------0h1-----0h1p0---------------3--------|
G|----------0------2---------4-4h5p4-2p0-----0h2--------------0-----2-----------------|
D|-----------------3---------------------0h2------------------------3------------5----|
A|-0-0---------3-3--3-3--5-5-------------------------0-0--------3-3--3-3--5-5---------|
E|-------------1-1--1-1--3-3------------------------------------1-1--1-1--3-3---3-----|
   * *         * *  * *  * *                         * *        * *  * *  * *              


    Am          F          G                                     Am          F
E|------------------------------------------------------------------------------------|
B|-0--1--3p0-1------0h1p0-------------------------------------0h1---0h1p0-------------|
G|-0--2------------------0-----3-------------2p0-2/4\2-0h2-2h4-----------0------2-----|
D|-----------------------------2---------0h2------------------------------------3-----|
A|--------------0-0--------3-3--3-3--5-5-------------------------0-0---------3-3--3-3-|
E|-------------------------1-1--1-1--3-3-------------------------------------1-1--1-1-|
                * *        * *  * *  * *                         * *         * *  * *    

    G          Am-slow strum
E|-------3-----0---------|
B|-------------1---------|
G|-----4-------2---------|
D|---5---------2---------|
A|-------------0---------|
E|-3-----------x---------|

~ - Vibrato
/ - Slide up
\ - Slide down
h - Hammer on
p - Pull off
* - Light palm mute
x - hard palm mute

Play list:
Verse 1/Intro
Chorus 1
Verse 2
Chorus 2
Solo with Chorus 2 in background
Interlude
Verse 3/Ending
Comments