Stabbing Westward - Shame Chords & Tabs

 

Shame Chords & Tabs

Stabbing Westward Chords & Tabs

Version: 3 Type: Tab 0 ratings
1 star 2 stars 3 stars 4 stars 5 stars
comments

Shame Tab

   
Band: Stabbing Westward
Song: Shame(#2)
Album: Wither Blister Burn & Peel
Tabbed by: Lyndsei "Jai"
Email: Absolutezero@musicfreakizoid.zzn.com
Tuning:	 E A D G b E

Song Layout:
Intro 	8x
Verse 	16x
Chours 	1x
Pre-Verse 8x
Verse 	16x
Chours 	1x
Bridge 	7x
Verse 	16x
Chours 	2x
Pre-Outro 1x
Outro 	16x

..::Intro::..
..::Pre-verse::..
..::Outro::..
e|--------------------|
B|--------------------|
G|--------------------|
D|--------------------|
A|---7^7^---7^7^---7^-|[ Tab from: http://www.guitartabs.cc/tabs/s/stabbing_westward/shame_tab_ver_3.html ]
..::Chours::..
e|---------------------------------------------------------------------------|
B|---------------------------------------------------------------------------|
G|---------------------------------------------------------------------------|
D|-2--2--2--10-10-10-7--7--7--5--5--5--2--2--2--10-10-10-7--7--7--5--7--9--11|
A|-2--2--2--10-10-10-7--7--7--5--5--5--2--2--2--10-10-10-7--7--7--5--7--9--11|
E|-0--0--0--8--8--8--5--5--5--3--3--3--0--0--0--8--8--8--5--5--5--3--5--7--9-|

..::Pre-outro::..
e|----------------------------|
B|----------------------------|
G|----------------------------|
D|-2--2--2-2--2--2-2--2--2-2--|
A|-2--2--2-2--2--2-2--2--2-2--|
E|-0--0--0-0--0--0-0--0--0-0*-|

*-This is played alot of times, I would say eather 8 or 16, not sure.

Guide:
  /  slide up
  \  slide down
  h  hammer-on
  p  pull-off
  ~  vibrato
  +  harmonic
  x  Mute note
  ^  Bend
Comments