Stabbing Westward - On Your Way Down Chords & Tabs

 

On Your Way Down Chords & Tabs

Stabbing Westward Chords & Tabs

Version: 4 Type: Tab 0 ratings
1 star 2 stars 3 stars 4 stars 5 stars
comments

On Your Way Down Tab

Stabbing Westward - On Your Way Down

Artist: Stabbing Westward
Song: On Your Way Down
Album: Darkest Days
Released: 1998
Contact Me: Zippo8822@aol.com

Tuning: Drop-D (DADGBE)
Number of Guitars Needed: 2

Symbols\Key
-----------
* - Harmonic
x - mute string
b - bend

-- Intro (0:00)

Guitar 1:
E|-----------------------|
B|-----------------------|
G|-----------------------|
D|-----------------------| - 4x - Bass Arranged For Guitar
A|--------------1-1-1-1--|
D|--3-0-0-0-3-0----------|

(0:10) - Start with feedback in pitch of F, then C
E|--x-x-x-x-|
B|--x-x-x-x-|
G|--x-x-x-x-|
D|--x-x-x-x-|
A|--x-x-x-x-|
D|--x-x-x-x-|

(0:13) - Rhythm Fig. 1
E|-------------------------|
B|-------------------------|
G|-------------------------|
D|--3-0-0-0-3-0-8-8-8-8-0--| - 3x
A|--3-0-0-0-3-0-8-8-8-8-0--|
D|--3-0-0-0-3-0-8-8-8-8-0--|

E|----------------------------|
B|----------------------------|
G|----------------------------|
D|--2-2-2-2-8-8-8-8-8-8-8-8-8-|
A|--2-2-2-2-8-8-8-8-8-8-8-8-8-|
D|--2-2-2-2-8-8-8-8-8-8-8-8-8-|

Guitar 2:
(0:13) - Lead Fig. 1
E|----------------------------------------------|
B|--5-5-5-5-5-5-5b(6)-5b(6)-5b(6)-5b(6)-5b(6)---|
G|----------------------------------------------|
D|----------------------------------------------| - 4x
A|----------------------------------------------|
D|----------------------------------------------|

-- Verse 1

Guitar 1: Rhythm Fig. 1 2x

-- Pre-Chorus 1

Guitar 1: Bass Fig. 1
 - Bass Arranged For Guitar
E|----------------------------------------------------------------|
B|----------------------------------------------------------------|
G|----------------------------------------------------------------|
D|----------------------------------------------------------------|
A|----------------------------------------------------------------|
D|--3-3--3--3-3--3--3-3--3-3--5-5--5--5-5--3--3-3--3--5-5--5--5-5-|

-- Chorus 1

Guitar 1: Rhythm Fig. 2
E|-----------------------------------------|
B|-----------------------------------------|
G|-----------------------------------------| - 3x
D|--5*-5*-3-3-3-3-5-5-5-5-0-0-0-0-0-0-0-0--| - Only play harmonics first time
A|--5*-5*-3-3-3-3-5-5-5-5-0-0-0-0-0-0-0-0--|
D|--5*-5*-3-3-3-3-5-5-5-5-0-0-0-0-0-0-0-0--|
[ Tab from: http://www.guitartabs.cc/tabs/s/stabbing_westward/on_your_way_down_tab_ver_4.html ]
(continued) - Chorus ends as follows
E|-------------------------|
B|-------------------------|
G|-------------------------|
D|--3-3-3-3-5-5-5-5-5-5-5--|
A|--3-3-3-3-5-5-5-5-5-5-5--|
D|--3-3-3-3-5-5-5-5-5-5-5--|

-- Pre-Verse 2

Guitar 1: Rhythm Fig. 1, 1x, until vocals start
Guitar 2: Lead Fig. 1, 4x, until vocals start

-- Verse 2

Guitar 1: Rhythm Fig. 1 2x

-- Pre-Chorus 2

Guitar 1: Bass Fig. 1, 1x

-- Chorus 2

Guitar 1: Rhythm Fig. 2, 1x

-- Bridge/Break

Guitar 1: Bass Fig. 2
- Bass Arranged For Guitar
E|-----------------------------------------------------------------------|
B|-----------------------------------------------------------------------|
G|-----------------------------------------------------------------------|
D|-----------------------------------------------------------------------|
A|-----------------------------------------------------------------------|
D|--8-8-8-8-8-8-8-8-8-8-8-8-8-8-8-8-8-2-2-2-2-2-2-2-2-2-2-2-2-2-2-2-2-2--|

(3:22) - Distortion - 4x
E|--6-6-6-6-6-6-6-6-6-6-6-6-6-6-6-6-12-12-12-12-12-12-12-12-12-12-12-12-12-12-12-12-|
B|--x-x-x-x-x-x-x-x-x-x-x-x-x-x-x-x-x--x--x--x--x--x--x--x--x--x--x--x--x--x--x--x--|
G|--3-3-3-3-3-3-3-3-3-3-3-3-3-3-3-3-9--9--9--9--9--9--9--9--9--9--9--9--9--9--9--9--|
D|----------------------------------------------------------------------------------|
A|----------------------------------------------------------------------------------|
D|----------------------------------------------------------------------------------|

-- Chorus 3

Guitar 1: Rhythm Fig. 2, 1x, No Harmonics

-- Outro

Guitar 1: Rhythm Fig. 1, 2x
Guitar 2: Lead Fig. 1, 8x

Guitar 2: Hold the following note until the end, at whichpoint,
	  "Waking Up Beside You" starts on CD. Then gradually release bend.
E|---------|
B|--5b(6)--|
G|---------|
D|---------|
A|---------|
D|---------|

Lyrics:

Verse 1:
I hope I see you on your way down.
I hope you break every bone.
I hope it kills you on your down.
And I hope you die alone.

Pre-Chorus 1:
All of your hate, and all of your lies. Will it be worth it?
When all of your friends refuse to be alibi's, will it be worth it?

Chorus 1:
I'll see you on your way down. (3x)

Verse 2:
It's kind of sad to watch you break down.
You greedy fuck, you pissed it all away.
So who will catch you on your way down?
You've only got yourself to blame.

Pre-Chorus 2:
When all your worst fears materialize, will it be worth it?
There's nobody left who cares you're alive; was it worth it?

Chorus 2:
I'll see you on your way down. (3x)

Bridge/Break:
Way down...
Way down...

Chorus 3:
I'll see you on your way down. (3x)
Comments