Stabbing Westward - On Your Way Down Chords & Tabs

 

On Your Way Down Chords & Tabs

Stabbing Westward Chords & Tabs

Version: 3 Type: Tab 0 ratings
1 star 2 stars 3 stars 4 stars 5 stars
comments

On Your Way Down Tab

Artist: Stabbing Westward
Album: Darkest Days
Song: On Your Way Down
Tuning: Drop D
EBGDAD High to Low
^ = Bend
Intro with bass

Intro and verse: Guitar 1
            3x                   
-----------------------------|---------------------------|
-----------------------------|---------------------------|
-----------------------------|---------------------------|
--xx-xx-3--0-7--3--0-8-8-8-7-|--2-2-2-2-8--8-8-8-8-8-8-8-|
--xx-xx-3--0-7--3--0-8-8-8-7-|--2-2-2-2-8--8-8-8-8-8-8-8-|
--xx-xx-3--0-5--3--0-8-8-8-7-|--2-2-2-2-8--8-8-8-8-8-8-8-|

Intro: Guitar 2

------------------------------|
--------5-5-5-5-5-5-5^5^5^5^5-|
------------------------------|
------------------------------|
------------------------------|
------------------------------|

Pre-chorus
[ Tab from: http://www.guitartabs.cc/tabs/s/stabbing_westward/on_your_way_down_tab_ver_3.html ]
Chorus:
            4th time don't play D Chord
----------------------------------------------------|
----------------------------------------------------|
----------------------------------------------------|
--xx-xx-3--3-3-3-3-5--5-5-5-5-5-0--0-0-0-0--0-0-0-0-|
--xx-xx-3--3-3-3-3-5--5-5-5-5-5-0--0-0-0-0--0-0-0-0-|
--xx-xx-3--3-3-3-3-5--5-5-5-5-5-0--0-0-0-0--0-0-0-0-|

Break: first part with bass.
         lots of pick scrapes and slides throughout
--6-6-6-6-6-6-6-6-6-6-6-6-6-12-12-12-12-12-12-12-12-12-12-12-|
-------------------------------------------------------------|
--3-3-3-3-3-3-3-3-3-3-3-3-3--8--8--8--8--8--8--8--8--8--8--8-|
-------------------------------------------------------------|
-------------------------------------------------------------|
-------------------------------------------------------------|

Chorus then verse out
Comments