Stabbing Westward - On Your Way Down Chords & Tabs

 

On Your Way Down Chords & Tabs

Stabbing Westward Chords & Tabs

Version: 1 Type: Tab 0 ratings
1 star 2 stars 3 stars 4 stars 5 stars
comments

On Your Way Down Tab

   
On Your Way Down by Stabbing Westward

Tabbed by Dave Bloom

mizar_alcoryahoo.com


This song is very powerful, although repetative with the chords.

Drop D Tuning

D
A
D
G
B
e

Chords...

| F | D | Bb| D2| G | e |                       
|---|---|---|---|---|---|
|---|---|---|---|---|---|
|---|---|---|---|---|---|
|-3-|-0-|-8-|-7-|-5-|-2-|
|-3-|-0-|-8-|-5-|-5-|-2-|
|-3-|-0-|-8-|-0-|-5-|-2-|

INTRO, VERSES, AND OUTRO....

 DO THAT A FEW TIMES THEN...
x-x-x-x------------------------|--------------------
x-x-x-x------------------------|--------------------
x-x-x-x------------------------|--------------------
x-x-x-x-3-3-3-3-0-0-3-3-8-8-8-8|-2-2-2-2-8-8-8-8-8-8
x-x-x-x-3-3-3-3-0-0-3-3-8-8-8-8|-2-2-2-2-8-8-8-8-8-8
x-x-x-x-3-3-3-3-0-0-3-3-8-8-8-8|-2-2-2-2-8-8-8-8-8-8
 

PLAY THIS OVER THE ABOVE PART(S)

------------------------)-)-)-)------
-5-5-5-5-5-5-5-5-5-5-5-5-5-5-5-5-5-5-
-------------------------------------
-------------------------------------
-------------------------------------
-------------------------------------


THE CHORUS...

The last time on the chorus don't play the D...

-x-x-x------------------------------------
-x-x-x------------------------------------
-x-x-x------------------------------------
-x-x-x-3-3-3-3-3-3-5-5-5-5-5-5-0-0-0-0-0-0
-x-x-x-3-3-3-3-3-3-5-5-5-5-5-5-0-0-0-0-0-0
-x-x-x-3-3-3-3-3-3-5-5-5-5-5-5-0-0-0-0-0-0




THE SOLO, OR BREAK.... REALLY FAST

-6-6-6-6-6-6-6-6-6-6-12-12-12-12-12--12-12
------------------------------------------              
-3-3-3-3-3-3-3-3-3-3-9--9--9--9--9--9--9--
------------------------------------------
------------------------------------------
------------------------------------------



LYRICS AND CHORD CHANGES...


             
  I hope I see you on your way down
[ Tab from: http://www.guitartabs.cc/tabs/s/stabbing_westward/on_your_way_down_tab.html ]
                              
  I hope you break every bone

                                             
  I hope it kills you on your way down

                               
  And I hope you die alone


                      
  All of your hate

                      
  And all of your lies

                              
  Will it be worth it

                                
  When all of your friends

                              
  refuse to be alibis

                          
  Will it be worth it


  
                                        
  I'll see you on your way down

                                       
  I'll see you on your way down

                                    
  I'll see you on your way down


  
                                          
  It's kinda sad to watch you break down

                                           
  You greedy *** you pissed it all away

                                           
  So who will catch you on your way down

                                     
  You've only got yourself to blame

                               
  When all your worst fears 

                       
  Materialize

                               
  Will it be worth it

                               
  There's nobody left

                                 
  Who cares your alive

                           
  Was it worth it


  
                                     
  I'll see you on your way down

                                       
  I'll see you on your way down
  
                                             
  I'll see you on your way down

                  
  Way down

                    
  Way down


                                 
  I'll see you on your way down

                                 
  I'll see you on your way down

                                         
  I'll see you on your way down

Comments