Stabbing Westward - Goodbye Chords & Tabs

 

Goodbye Chords & Tabs

Stabbing Westward Chords & Tabs

Version: 2 Type: Tab 0 ratings
1 star 2 stars 3 stars 4 stars 5 stars
comments

Goodbye Tab

   
Stabbing Westward - Goodbye
Submitted By: Greg Ram,irez
EMail: Gutterball438@aol.com


Tuning: Drop D (D A D G B e)
[ Tab from: http://www.guitartabs.cc/tabs/s/stabbing_westward/goodbye_tab_ver_2.html ]
The whole song is basically one riff
----------------------------------------------------|
----------------------------------------------------|
----------------------------------------------------|
-----4---------4---------------4--------4-----------|
---4---------4---------5-----4--------4---------5---|
-4------4--7-----4-0-------4-----4--7-----4-0-------|
Sometimes the transition adds a note
----------------------------------------------------|
----------------------------------------------------|
----------------------------------------------------|
-----4---------4---------------4--------4-----------|
---4---------4---------5-----4--------4---------5---|
-4------4--7-----4-0-----2-4-----4--7-----4-0-------|

Questions corrections email greg at Gutterball438@aol.com
Comments