Stabbing Westward - Everything I Touch Chords & Tabs

 

Everything I Touch Chords & Tabs

Stabbing Westward Chords & Tabs

Version: 3 Type: Tab 0 ratings
1 star 2 stars 3 stars 4 stars 5 stars
comments

Everything I Touch Tab

   
Stabbing Westward - Everything I Touch
Submitted By: Greg Ramirez
EMail: Gutterball438@aol.com

Tuning: Drop D (D A D G B e)

Intro/Verse
----------------------------|
----------------------------|
----------------------------|
-2------3-----/8-----7------|
-2------3-----/8-----7------|
-2------3-----/8-----7------|
[ Tab from: http://www.guitartabs.cc/tabs/s/stabbing_westward/everything_i_touch_tab_ver_3.html ]
Chorus:
-----------------------------------------|
-----------------------------------------|
-----------------------------------------|3x
-0-0-0-0-0-2-2-2-2-2-3-3-3-3-3-1-1-1-1-1-|
-0-0-0-0-0-2-2-2-2-2-3-3-3-3-3-1-1-1-1-1-|
-0-0-0-0-0-2-2-2-2-2-3-3-3-3-3-1-1-1-1-1-|
4x
---------------------------------------------------------
---------------------------------------------------------
---------------------------------------------------------
-0-0-0-0-0-2-2-2-2-2-3-3-3-3-3-8-8-8-8-8-8-8-8-8-8-8-8-8-
-0-0-0-0-0-2-2-2-2-2-3-3-3-3-3-8-8-8-8-8-8-8-8-8-8-8-8-8-
-0-0-0-0-0-2-2-2-2-2-3-3-3-3-3-8-8-8-8-8-8-8-8-8-8-8-8-8-

-------------------|--------------------|
-------------------|--------------------|
-7/9-9-9/10109-2-2-|-5-5-5-101010101010-|
-5/7-7-7/8-8-7-0-0-|-3-3-3--8-8-8-8-8~8-|
-5/7-7-7/8-8-7-0-0-|-3-3-3--8-8-8-8-8~8-|
-5/7-7-7/8-8-7-0-0-|-3-3-3--8-8-8-8-8~8-|

Qeustions Corrections email Greg at Gutterball438@aol.com
Comments