Stabbing Westward - Everything I Touch Chords & Tabs

 

Everything I Touch Chords & Tabs

Stabbing Westward Chords & Tabs

Version: 1 Type: Tab 0 ratings
1 star 2 stars 3 stars 4 stars 5 stars
comments

Everything I Touch Tab

   
Everything I Touch By Stabbing Westward

Tabbed by Dave Bloom    

mizar_alcor@yahoo.com




The majority of this song is chords so I will provide the words 
with the chords, and then tab 
the individual parts of the song that actually need to be 
tabbed.  

Standard Tuning, Drop D

D
A
D
G
B
e


CHORDS....

 e  | F  | A |  Bb | G | D | Eb | D2 | A2 |                                   
----|----|---|-----|---|---|----|----|-0--|
----|----|---|-----|---|---|----|----|-0--|
----|----|---|-----|---|---|----|-7--|-X--|
-2--|-3--|-7-|--8--|-5-|-0-|-1--|-7--|-7--|
-2--|-3--|-7-|--8--|-5-|-0-|-1--|-5--|-7--|
-2--|-3--|-7-|--8--|-5-|-0-|-1--|----|-7--|


e               F 
 The more I feel

Bb           A
 The more I die

e               F
 Nothing to give

Bb           A
 Nothing inside


 D        e       F       Eb
 Everything I touch I break ( I wanna break you)

 D        e       F       Eb
 Everything I touch I break ( I wanna break you)

 D        e       F           G
 Everything I touch I break

               Bb
 I wanna break you down....


INTERLUDE                        REPEAT THREE TIMES 
[ Tab from: http://www.guitartabs.cc/tabs/s/stabbing_westward/everything_i_touch_tab.html ]
PLAY BOTH G AND A's BUT ONLY THE ONE D (D2)
 G    A                     D2
----------------------------------------------
----------------------------------------------
-12\--14-14-14-14-14-14-----7-7--7-7----------
-12\--14-14-14-14-14-14-----7-7--7-7----------
-10\--12-12-12-12-12-12-----5-5--5-5----------
----------------------------------------------
THEN PLAY THIS ONCE
                          *A2* 
---------------------------0---
---------------------------0---
---------------------------X---     This is the only part
2-2/3-3--8-8-8-8-8---------7---   that I am not 100% sure    
2-2/3-3--8-8-8-8-8---------7---   on, I know the Bb is 
2-2/3-3--8-8-8-8-8---------7---   right, but not sure 
                                  about the F/E  
Repeat the whole thing twice


* USE THAT ONLY TO END THE SONG, THAT IS THE CHORD 
       THAT ENDS THE SONG...*

e                 F
 I scratch and tear

Bb           A
 Until it bleeds

e             F 
 I do not want 

Bb        A
 I only need

Bb        A
 I only need

Bb        A
 I only need



 D        e       F       Eb
 Everything I touch I break  (I wanna break you)


 D        e       F       Eb
 Everything I touch I break  (I wanna break you)


 D        e       F        G
 Everything I touch I break


               Bb
 I wanna break you down.... (my world is torn)?


 D        e       F       Eb
 Everything I touch I break  (tear my world apart)?


 D        e       F       Eb
 Everything I touch I break  (my world is apart)?

 D        e       F        G
 Everything I touch I break


               Bb
 I wanna break you down....	

BACK TO INTERLUDE...


Any questions, comments, praises, reactions, or anything 
   that needs to be vented, e-mail me at mizar_alcor@yahoo.com
(Dave Bloom)

Comments