Stabbing Westward - Drowning Chords & Tabs

 

Drowning Chords & Tabs

Stabbing Westward Chords & Tabs

Version: 1 Type: Bass Tab 0 ratings
1 star 2 stars 3 stars 4 stars 5 stars
comments

Drowning Bass Tab

   
Song: Drowning
Artist: Stabbing Westward
Album: Darkest Days
Tabbed by: K.C. (kc@kcsrealm.com)
Tuning: Drop D (D A D G)


Riff 1
[ Tab from: http://www.guitartabs.cc/tabs/s/stabbing_westward/drowning_btab.html ]
G|-------1------------2----|
D|----------2--------------|
A|--4------------0---------|
D|-------------------------|


Riff 2

G|-------------------------|
D|--------------------2-0--|
A|-------4-----------------|
D|--4-------4----0---------|


Riff 1 x 24
Riff 2 x 4
Riff 1 x 14

Comments