Stabbing Westward - Angel Chords & Tabs

 

Angel Chords & Tabs

Stabbing Westward Chords & Tabs

Version: 2 Type: Tab 0 ratings
1 star 2 stars 3 stars 4 stars 5 stars
comments

Angel Tab

Angel
Tab by: Jase

Symbols: 

5b(7) = Bend 5th fret to the pitch of the 7th fret 
X = Muted Strings 

Use Drop D Tuning, the standard Stabbing Westward tuning (DADGBe)


Intro Rhythm Guitar (w/distortion) 
                                                        (2x) 
e|---------------------------------------------------------| 
B|---------------------------------------------------------| 
G|---------------------------------------------------------| 
D|--0--0--0--0----3--3--3--3----8--8--8--8----5--5--5--5---| 
A|--0--0--0--0----3--3--3--3----8--8--8--8----5--5--5--5---| 
D|--0--0--0--0----3--3--3--3----8--8--8--8----5--5--5--5---| 

Intro: Lead Guitar 
                                             (2x) 
e|----------------------------------------------| 
B|----5b(7)---3----5b(7)---3---5--5b(7)---5-----| 
G|----------------------------------------------| 
D|----------------------------------------------| 
A|----------------------------------------------| 
D|----------------------------------------------| 

Verse: Play intro 4x (no distortion)  

Lead over verse:  
These are the high notes that are played 
during the verse. Screw around with them 
because they are played more, and in different 
patterns.  These notes might actually be played on 
the keyboard instead of guitar.
e|--17------------| 
B|------18--------| 
G|----------19----| 

Pre-Chorus: 
                                                (2x) 
e|-------------------------------------------------| 
B|-------------------------------------------------| 
G|----4-4-X-X-X-X----5-5-X-X-X-X----7-7-7-7-7-7----| 
D|----4-4-X-X-X-X----5-5-X-X-X-X----7-7-7-7-7-7----| 
A|----2-2-X-X-X-X----3-3-X-X-X-X----5-5-5-5-5-5----| 
D|-------------------------------------------------| 
[ Tab from: http://www.guitartabs.cc/tabs/s/stabbing_westward/angel_tab_ver_2.html ]
                                              (2x) 
e|-----------------------------------------------| 
B|-----------------------------------------------| 
G|----4-4-X-X-X-X--------------------------------| 
D|----4-4-X-X-X-X----5-5-X-X-X-X----0------------| 
A|----2-2-X-X-X-X----5-5-X-X-X-X----0-(let ring)-| 
D|-------------------5-5-X-X-X-X----0------------| 

Chorus: 
                                     (3x) 
e|--------------------------------------| 
B|--------------------------------------| 
G|--------------------------------------| 
D|--0-0-0-0--2-2-2-2--5-5-5-5-5-5-5-5---| 
A|--0-0-0-0--2-2-2-2--5-5-5-5-5-5-5-5---| 
D|--0-0-0-0--2-2-2-2--5-5-5-5-5-5-5-5---| 

                                  (1x) 
e|-----------------------------------| 
B|-----------------------------------| 
G|-----------------------------------| 
D|--9--9----7--7------0--0--0--0-----| 
A|--9--9----7--7------0--0--0--0-----| 
D|--9--9----7--7------0--0--0--0-----| 

Riff played after the second chorus:  
(1x) 
D|-----4--2----------------| 
A|-----------5--4---0--2---| 
D|-------------------------| 

Interlude:  
(Note: This entire part is played on an acoustic guitar. I just figured it out on 
my Washburn since I don't have an acoustic guitar. However, it sounds right...)  

    
e|--------------------------------------------------------| 
B|--------------------------------------------------------| 
G|--------------------------------------------------------| 
D|--------0-------4--0-----0---------0-------4--0-----0---| 
A|---2---------2--------0-------0---------0--------0------| 
D|--------------------------------------------------------| 

                                                  (4x) 
e|---------------------------------------------------| 
B|---------------------------------------------------| 
G|---------------------------------------------------| 
D|--------0-------4--0-----0-----4--2----------------| 
A|----------------------0--------------5--4----0--2--| 
D|---5---------5-------------------------------------| 

Break/Solo: (w/heavy distortion) 
                                                   (4x) 
e|----------------------------------------------------| 
B|----------------------------------------------------| 
G|---4-4--6--7---2-2--6--7--------6--7--11--9--7--6---| 
D|---4-4---------2-2---------5-5----------------------| 
A|---2-2--4--5---0-0--4--5---5-5--4--5---9--7--5--4---| 
D|---------------------------5-5----------------------|
Comments