Stab - Here You Stay Chords & Tabs

 

Here You Stay Chords & Tabs

Stab Chords & Tabs

Version: 1 Type: Tab 0 ratings
1 star 2 stars 3 stars 4 stars 5 stars
comments

Here You Stay Tab

   
This is a song by a cool band named Stab

Intro:

--------------------------------|
--------------------------------|
--------------------------------|  * Figure 1
--------------------------------|
---5--6--7--6--5--6--7--6--5--6-|
--------------------------------|

Then after drum roll it is the same riff as above except it's played
like this:

---------------------------------|
---------------------------------|
---------------------------------| * Figure 2
---------------------------------|
-5--6--7--6--5--6--7-------------|
-5--6--7--6--5--6--7-------------|

Then this is during the verses:

------------------------------|
------------------------------|
------------------------------|
------------------------------|
--7--7--6--6--5--5--6--6------|
--7--7--6--6--5--5--6--6------|
[ Tab from: http://www.guitartabs.cc/tabs/s/stab/here_you_stay_tab.html ]
At the end of the second line of each verse play Figure 2.
This is the bridge:

       (G)
----3-------3-----------|
------------------------|
------------------------|
------------------------|
----2-------2-----------|
----3-------3-----------|

Solo:

--------------------------------------------------------------7-------7------|
-----------------------------------------------------------------6------6----|
---7--7--9--9--7--9~~--9~~-----8p5--------------12~~----------------5-----5--|
--------------------------11---------------5h7---------5---------------------|
---------------------------------------7~------------------------------------|
-----------------------------------------------------------------------------|

*This isnt exactly right but it's pretty much right. Cool solo anyway.
There are mover vibratos and bends and stuff then what i have on here

Email to hear the song or to see the lyrics. evh82@yahoo.com
Comments