Sr-71 - Truth Chords & Tabs

 

Truth Chords & Tabs

Sr-71 Chords & Tabs

Version: 1 Type: Tab 0 ratings
1 star 2 stars 3 stars 4 stars 5 stars
comments

Truth Tab

   
-----------------------------------------------------------------------------
			        Truth - Sr-71
-----------------------------------------------------------------------------
Tabbed by: Pryftan
Email: mmisbetterthenyou@hotmail.com

Tuning: Drop D 1/2 step down

That bridge is evil to figure out because the speed makes it sound different
then it really is. Screwy.

Intro/Verse
Eb|----5----3----2---0-|
Bb|---3----3-----------|
Gb|-------------2---2--|
Db|--0----0----0---0---|
Ab|--------------------|
Db|-0----0----0---0----|

Chorus A
Eb|-----------------------------------------|
Bb|-----------------------------------------|
Gb|-------12-14-14-14-14-14-15-14-14-12-14--|
Db|--0-0--0--0--0--0--0--0--0--0--0--0--0---|
Ab|--0-0------------------------------------|
Db|--0-0------------------------------------|
[ Tab from: http://www.guitartabs.cc/tabs/s/sr_71/truth_tab.html ]
Eb|-----------------------------------------|
Bb|-----------------------------------------|
Gb|-----------------------------------------|
Db|--0-0--12-14-14-14-14-14-15-14-14-14-12--|
Ab|--0-0--0--0--0--0--0--0--0--0--0--0--0---|
Db|--0-0------------------------------------|

Chorus B - Listen for strumming pattern
Eb|-----------|
Bb|-----------|
Gb|--------0--|
Db|--9-----5--|
Ab|--9-----5--|
Db|--9-----5--|

Chorus A

Chorus C
Eb|-----------|
Bb|-----------|
Gb|-----------|
Db|--9-----8--|
Ab|--9-----5--|
Db|--9-----5--|

Verse

Bridge
Eb|-------------------------------------------------------|
Bb|-------------------------------------------------------|
Gb|-------------------------------------------------------|
Db|--0-0-2-3-0-2-3-2-3-5-3-0-2-3-0-0-2-3-2-0-2-3-10---11--|
Ab|--0-0-2-3-0-2-3-2-3-5-3-0-2-3-0-0-2-3-2-0-2-3-10---11--|
Db|--0-0-2-3-0-2-3-2-3-5-3-0-2-3-0-0-2-3-2-0-2-3-10---11--|

All Chorus
Comments