Sr-71 - Tomorrow Chords & Tabs

 

Tomorrow Chords & Tabs

Sr-71 Chords & Tabs

Version: 2 Type: Tab 0 ratings
1 star 2 stars 3 stars 4 stars 5 stars
comments

Tomorrow Tab

   
Artist: SR-71
Song: Tomorrow
Album: Tomorrow
Tuning Used: Drop D Half Step Down(low to high: Db-Ab-Db-Gb-Bb-eb)
Tabbed By: Daniel Conk (AngrY GuitarisT) (DCC5417@aol.com)

i taught myself how to play the song based on having listen to the song a lot.
i'm not guarenteeing this is the exact way the band plays it, but i am
guarenteeing this will give you an identical sound to what you hear on the
record. hope you enjoy it.


Intro

(Play Clean)

eb|-------------------------------------------------| 
Bb|-------------------------------------------------| 
Gb|-------------------------------------------------| 
Db|-------------------------------------------------| 
Ab|-------------------------------------------------| 
Db|---11----11----12----12----7----7----2----2------|


Chorus

(Play All 3 Distorted)

Part A

eb|----------------|----------------------------------------------------------| 
Bb|----------------|----------------------------------------------------------| 
Gb|----------------|----------------------------------------------------------| 
Db|---6*-6*-6*-6*--|---6~-------6--7~----------6~-------6--4~-----------------| 
Ab|---4*-4*-4*-4*--|---4~----------0~----------4~----------0~-----------------| 
Db|---4*-4*-4*-4*--|---4~----------0~----------4~----------0~-----------------|

Part B

eb|----------------|----------------------------------------------------------| 
Bb|----------------|----------------------------------------------------------| 
Gb|----------------|----------------------------------------------------------| 
Db|---6*-6*-6*-6*--|---6~-------6--7~----------2~-------2-2~------------------| 
Ab|---4*-4*-4*-4*--|---4~----------0~----------2~---------2~------------------| 
Db|---4*-4*-4*-4*--|---4~----------0~----------2~---------2~------------------|
[ Tab from: http://www.guitartabs.cc/tabs/s/sr_71/tomorrow_tab_ver_2.html ]
Part C
eb|----------------|----------------------------------------------------------| 
Bb|----------------|----------------------------------------------------------| 
Gb|----------------|----------------------------------------------------------| 
Db|---6*-6*-6*-6*--|---6~-------6--7~----------2~--------2-2~----------2~-----| 
Ab|---4*-4*-4*-4*--|---4~----------0~----------2~----------2~----------2~-----| 
Db|---4*-4*-4*-4*--|---4~----------0~----------2~----------2~----------2~-----|



Verse

(Play clean)
i just play the chorus very lightly struming each chord

eb|------------------------------------------------------------| 
Bb|------------------------------------------------------------| 
Gb|------------------------------------------------------------| 
Db|---6~----------7~---------6~----------4~--------------------| 
Ab|---4~----------0~---------4~----------0~--------------------| 
Db|---4~----------0~---------4~----------0~--------------------|


Pre-Chorus

(Play Clean)

eb|-------------------------------------------------| 
Bb|-------------------------------------------------| 
Gb|-------------------------------------------------| 
Db|-------------------------------------------------| 
Ab|-------------------------------------------------| 
Db|---11----11----12----12----7----7----2----2------|

Final chord 


(Play Distorted)

eb|--------| 
Bb|--------| 
Gb|--------| 
Db|---4~---| 
Ab|---4~---| 
Db|---4~---|


* keep you fingers over the position without applying pressure for the harmonic-type sound
~ let it ring out


Order Of Playing:

Intro (play twice)
Chorus Part A (play twice)
Verse (Play twice)
Pre-Chorus (play once)
Chorus Parts A and B (play each once)
Verse (Play twice)
Pre-Chorus (play twice)
Chorus Parts A and B (play each once)
Chorus Part A (play once)
Chorus Part C (play once)
Chorus Parts A and B (play each twice)
Final Chord (play once)


thats it. hope it works for you the same way it works for me. peace out.
Comments