Sr-71 - They All Fall Down Chords & Tabs

 

They All Fall Down Chords & Tabs

Sr-71 Chords & Tabs

Version: 2 Type: Tab 0 ratings
1 star 2 stars 3 stars 4 stars 5 stars
comments

They All Fall Down Tab

-----------------------------------------------------------------------------
			   They All Fall Down - Sr-71
-----------------------------------------------------------------------------
Tabbed by: Pryftan
Email: mmisbetterthenyou@hotmail.com

Tuning: Drop D 1/2 step down

When I made the tab for Goodbye I hadn't yet come to the conclusion that Sr-71
plays 1/2 step down...but they do. I've tabbed all of Tomorrow, I'm just going to
look it over and then I'll submit it for full album...

Intro/Verse
Eb|----------------------------|
Bb|------------------------3-2-|
Gb|----4-4-2-2-2-----4-4-2-2-2-|
Db|----4-4-4-4-4-----4-4-4-----|
Ab|-0h2----------0h2-----------|
Db|----------------------------|
[ Tab from: http://www.guitartabs.cc/tabs/s/sr_71/they_all_fall_down_tab_ver_2.html ]
Chorus A (They all fall down)
Eb|------------------|
Bb|------------------|
Gb|------------------|
Db|--5----4--2----4--|
Ab|--5----4--2----4--|
Db|--5----4--2----4--|

Chorus B (Hated, Jaded...)
Eb|-----------------|
Bb|-----------------|
Gb|-----------------|
Db|--9---5---7---7--|
Ab|--9---5---7---7--|
Db|--9---5---7---7--|

Chorus C (Yet...)
Eb|-----------------|
Bb|-----------------|
Gb|-----------------|
Db|--9---5---7---2--|
Ab|--9---5---7---2--|
Db|--9---5---7---2--|

Bridge - Actually I'm too lazy to make it exactly right but you'll get the idea if you listen.
Eb|------------------------------|
Bb|------------------------------|
Gb|--7---6-----------------------|
Db|--5---5---7-9-9-7-9-9-7-9-11--|
Ab|--5---5---7-9-9-7-9-9-7-9-11--|
Db|--0---0---7-9-9-7-9-9-7-9-11--|
Comments