Sr 71 - Right Now Chords & Tabs

 

Right Now Chords & Tabs

Sr 71 Chords & Tabs

Version: 3 Type: Tab 0 ratings
1 star 2 stars 3 stars 4 stars 5 stars
comments

Right Now Tab

tabbed by: Fernando Torres

SR 71
Right Now

This is the way it is and i am very damn sure it is:

[ Tab from: http://www.guitartabs.cc/tabs/s/sr_71/right_now_tab_ver_3.html ]
|    |Palm Mute..|    		  |Pam Mute........|		   |Palm Mute..|
|---------------------------------------------------------------------------------|
|---------------------------------------------------------------------------------|
|-8----8-8-8-8-8----12--10--8-------------------------8-10--12--------------------|
|-8----8-8-8-8-8----12--10--8--10---10-10-10-10-10----8-10--12--8----8-8-8-8-8----|
|-6----6-6-6-6-6----10---8--6--10---10-10-10-10-10----6--8--10--8----8-8-8-8-8----|
|-------------------------------8----8--8--8--8--8--------------6----6-6-6-6-6----|


|------------------------------------------|
|------------------------------------------|
|--12--10--8---13--12--10--12--10--8--8----|
|--12--10--8---13--12--10--12--10--8--8----|
|--10---8--6---11--10---8--10---8--6--6----|
|------------------------------------------|
Comments