Sr 71 - Right Now Chords & Tabs

 

Right Now Chords & Tabs

Sr 71 Chords & Tabs

Version: 3 Type: Bass Tab 0 ratings
1 star 2 stars 3 stars 4 stars 5 stars
comments

Right Now Bass Tab

I saw a tab for this that was almost right, but it was very confusing.  This chould clear
things up and make it easier to play.  Questions or comments email Sion0x@aol.com

Drop D tuning

Intro:
G:--------------------------
D:1/6666666666666666--------
A:--------------------------
D:--------------------------

G:-----------------------------------------------------------------
D:-----------------------------------------------------------------
A:6-666666666666-3-33333333333333-1-11111111111111----------------5
D:-------------------------------------------------6-6666666666666-

Verse:
G:-------------------------------------------------------------------
D:-------------------------------------------------------------------
A:6-66666666666666-3-33333333333333-1-11111111111111----------------5
D:---------------------------------------------------6-666666666666--

G:-------------------------------------------------------------------
D:-------------------------------------------------------------------
A:6-666666666666-2-3-333333333333-0-1-111111111111-------------------
D:-------------------------------------------------5-6-66666666666666

Chorus:
G:-------------------------------
D:-------------------------------      Play this 3X
A:--------1-1-1-1-3-3-3-3--------
D:1-1-1-1-----------------6-6-6-6

G:------------------------------------
D:-------1--5--3--5----6-6-6-6-6-6-6-6    Play this the fourth time, listen 
A:----3-------------------------------     for timing
D:-3----------------------------------

Then you play this once:
G:-----------------------------------------------------------------
D:-----------------------------------------------------------------
A:6-666666666666-3-33333333333333-1-11111111111111----------------6
D:-------------------------------------------------6-6666666666666-

Then go into the verse here:
G:-------------------------------------------------------------------
D:-------------------------------------------------------------------
A:6-3-33333333333333-1-11111111111111----------------5---------------
D:-------------------------------------6-666666666666----------------

Second part of verse:
G:-------------------------------------------------------------------
D:-------------------------------------------------------------------
A:6-666666666666-2-3-333333333333-0-1-111111111111-------------------
D:-------------------------------------------------5-6-66666666666666
[ Tab from: http://www.guitartabs.cc/tabs/s/sr_71/right_now_btab_ver_3.html ]
Pre-Chorus:
G:-------------------4--4--------
D:------1---5--3--5--------------
A:---3---------------------------
D:3----------------------------7\

Chorus:
G:-------------------------------
D:-------------------------------
A:--------1-1-1-1-3-3-3-3--------
D:1-1-1-1-----------------6-8-6-5

G:-------------------------------
D:-------------------------------
A:--------1-1-1-1-3-3-3-3--------
D:1-1-1-1-----------------6-8-6-5

G:-------------------------------
D:-------------------------------
A:--------1-1-1-1-3-3-3-3--------
D:1-1-1-1-----------------6-5-3-1

G:-------------------------------
D:------1--5--3--5---6--8--6-----
A:---3--------------------------6/
D:3------------------------------

Solo:
G:--------------------------------------------------------------
D:--------------------------------------------------------------
A:--------1-1-1-1-3-3-3-3------5-6-6-6-6-1-1-1-1-3-3-3-3-6------
D:1-1-1-1-----------------6-6-6------------------------------5-6

G:-------------------------------
D:-------------------------------        Play 2X
A:--------1-1-1-1-3-3-3-3--------
D:1-1-1-1-----------------6-6-6-6

G:-------------------------------------
D:--------------------66666666-66668888
A:-6----1------------------------------
D:-----------3----6--------------------

Last Chorus:
G:----------------------------------------------------------------
D:----------------------------------------------------------------
A:--------1-1-1-1-3-3-3-3-----------------1-1-1-1-3-3-3-3--------6
D:1-1-1-1-----------------6-6-6-6-1-1-1-1-----------------6-8-10--

G:---------------------------------------------------------------
D:---------------------------------------------------------------
A:--------1-1-1-1-3-3-3-3----------------------------------------
D:1-1-1-1-----------------6-6-6-1-3-3-3-3-3-3-3-3-6-6-6-6-6-5-6-8

Outro:
G:------------------------------------------------------------------
D:------------------------------------------------------------------
A:6-66666666666666-3-33333333333333-1-11111111111111---------------5
D:---------------------------------------------------6-666666666666-

G:-----------------------------------------------------------------
D:---------------------------------------------------4---------1---
A:6-66666666666666-3-33333333333333-1-11111111111111-4---2-4-------
D:-----------------------------------------------------------------


That's it, enjoy! feedback is appreciated, corrections as well.
Comments