Sr-71 - Politically Incorrect Chords & Tabs

 

Politically Incorrect Chords & Tabs

Sr-71 Chords & Tabs

Version: 1 Type: Tab 0 ratings
1 star 2 stars 3 stars 4 stars 5 stars
comments

Politically Incorrect Tab

SR 71  
Politically Incorrect  
Mattleone@localbar.com  
 
 
--3--3--3-3-3-2--2--x-2-2-2-0--0--0-0-0-0--0--x-0-0-0-0-----------------------  
--3--3--3-3-3-3--3--x-3-3-3-0--0--0-0-0-1--1--x-1-1-1-1-----------------------  
--0--0--0-0-0-2--2--x-2-2-2-0--0--0-0-0-0--0--x-0-0-0-0-----------------------  
--0--0--0-0-0-0--0--x-0-0-0-2--2--2-2-2-2--2--x-2-2-2-2----------------------- x2  
--2--2--2-2-2---------------2--2--2-2-2-3--3--x-3-3-3-3-----------------------  
--3--3--3-3-3---------------0--0--0-0-0---------------------------------------  
                                                                                
--3---3-3--3-3--2---2-2--2-2--0---0-0--0-0--------0-----0---------------------  
--3---3-3--3-3--3---3-3--3-3--0---0-0--0-0----------0---1---------------------  
--0---0-0--0-0--2---2-2--2-2--0---0-0--0-0------0-----0-0---------------------  
--0---0-0--0-0--0---0-0--0-0--2---2-2--2-2----2---------2--2-2-2-2-2-2-2-2---- x1  
--2---2-2--2-2----------------2---2-2--2-2--4-----------3--3-3-3-3-3-3-3-3----  
--3---3-3--3-3----------------0---0-0--0-0------------------------------------  
                                                                                
Play this along with the above chords:  
-15------14--14--14h15--------------------------------------------------------  
-18b20------------------15-----15b17r15---------------------------------------  
------------------------17b19-----------17--16h17p16--------------------------  
------------------------------------------------------------------------------  
------------------------------------------------------------------------------  
------------------------------------------------------------------------------  
                                                                                
-15------14--14--14h15--17b19-17-19-17b19r17-15---14h15p14--------------------  
-18b20------------------------------------------------------------------------  
------------------------------------------------------------------------------  
------------------------------------------------------------------------------  
------------------------------------------------------------------------------  
------------------------------------------------------------------------------  
                                                                                
The bass plays G F# E C, and the guitar plays this:  
------------------------------------------------------------------------------  
------------------------------------------------------------------------------  
-----------------7-------------------------------5--x-5--x-5------------------  
-5---------------7---------------2---------------5--x-5--x-5------------------  
-5---------------5---------------2---------------3--x-3--x-3------------------  
-3-------------------------------0--------------------------------------------  
                                                                                
After the above is played this is played with the first 3 chords  
-------------------------------------------------------0----------------------  
-8---------------10--------------12----------------------0--------------------  
-----------------------------------------------------0-----0------------------  
---------------------------------------------------2--------------------------  
-------------------------------------------------4----------------------------  
------------------------------------------------------------------------------  
"so impressing while......"                                         
      
------------------------------------------------------------------------------  
------------------------------------------------------------------------------  
-0--------------------------0-------------------------------------------------  
-2--------------------------2-------------------------------------------------  
-3---3-3-3-3-3-3-3-3-3-3-3--3--3-3-3-3-3-3-3-3-3-3-3-3------------------------  
------------------------------------------------------------------------------  
                                                                                
Then chorus is played and then this transition is played:  
------------------------------------------------------------------------------  
------------------------------------------------------------------------------  
-5-5-5-5-4-4-2-2--------------------------------------------------------------  
-5-5-5-5-4-4-2-2--------------------------------------------------------------  
-3-3-3-3-2-2-0-0--------------------------------------------------------------  
------------------------------------------------------------------------------  
                                                                                
This is played with the below chords:  
-------0-----------0-----------2----------------------------------------------  
---------0-----------1-------3---3--------------------------------------------  
-----0-----0-----0-----0---2-------2------------------------------------------  
---2-----------2---------0----------------------------------------------------  
-4-----------3----------------------------------------------------------------  
------------------------------------------------------------------------------  
                                                                                
------------------------------------------------------------------------------  
------------------------------------------------------------------------------  
-------------5-----------7----------------------------------------------------  
-------------5-----------7----------------------------------------------------  
-------------3-----------5----------------------------------------------------  
------------------------------------------------------------------------------  
                                                                                
This rythm is played after:  
------------------------------------------------------------------------------  
------------------------------------------------------------------------------  
-------------7-7-----9-9-----5-5-----7-7-----4-4-----5-5----------------------  
-----5-5-----7-7-----9-9-----5-5-----7-7-----4-4-----5-5-4-4-2-2--------------  
-----5-5-5-5-5-5-7-7-7-7-3-3-3-3-5-5-5-5-2-2-2-2-3-3-3-3-2-2-0-0--------------  
-3-3-3-3----------------------------------------------------------------------  
                                                                                
"what happened to make us...."  
-3-3----------2-2---------0--0-0--0-0--0--0-0--0-0----------------------------  
-3-3----------3-3---------0--0-0--0-0--1--1-1--1-1----------------------------  
-0-0----------2-2---------0--0-0--0-0--0--0-0--0-0----------------------------  
-0-0----------0-0---------2--2-2--2-2--2--2-2--2-2----------------------------  
-2-2----------------------2--2-2--2-2--3--3-3--3-3----------------------------  
-3-3----------------------0--0-0--0-0-----------------------------------------  
                                                                                
This is played after that: "I saw blazing saddles yesterday"  
--------0-----------0------0--------------------------------------------------  
------1---1-----------0----1--------------------------------------------------  
------------0-----0-----0--0--------------------------------------------------  
----2-----------2----------2--------------------------------------------------  
--3-----------4------------3--------------------------------------------------  
------------------------------------------------------------------------------  
                                                                                
This ones a little confusing to read, but Im sure if you listen to the song you  
can pick out whats what.
[ Tab from: http://www.guitartabs.cc/tabs/s/sr_71/politically_incorrect_tab.html ]
Comments