Sr-71 - One Chords & Tabs

 

One Chords & Tabs

Sr-71 Chords & Tabs

Version: 1 Type: Tab 0 ratings
1 star 2 stars 3 stars 4 stars 5 stars
comments

One Tab

   
Tabbed By: Mike

x = muted note
pm = palm mute
/ = slide up
\ = slide down
h = hammer on
p = pull off


DROP D HALF A STEP DOWN!!!!!


 Intro:
	Part 1
eb-------------------|
Bb-------------------|
Gb-------------------|
Db-99xx99xx99xx99xx--|
Ab-99xx99xx99xx99xx--|
Db-99xx99xx99xx99xx--|

	Part 2
eb------------------|
Bb------------------| (2x)
Gb---------77--77---|
Db-9977550077007700-
Ab-9977550055005500-
Db-99775500--00--00-

        Part 3
eb----------------------------------|
Bb----------------------------------|
Gb---------77--77-----------77--777-|
Db-9977550077007700-997755007700777-|
Ab-9977550055005500-997755005500545-|
Db-99775500--00--00-99775500--00----|

Verse:

eb-----------------|
Bb-----------------| (4x)
Gb--------77--77---|
Db-99-----77007700-|
Ab-99-----55005500-|
Db-99-------00--00-|

Pre-chorus:

eb----------------------------------|
Bb----------------------------------|
Gb---------7777------------77777777-|
Db-99995555777777779999555577777777-
Ab-99995555555577779999555555555555-
Db-99995555----777799995555---------

eb----------------------------------|
Bb----------------------------------|
Gb---------7777---------------------|
Db-99995555777777779999555577777777-
Ab-99995555555577779999555577777777-
Db-99995555----77779999555577777777-

Chorus:
	rhythm - strum each chord as needed
eb-----------------------------------|
Bb-----------------------------------|
Gb-----------------------------------|
Db--0----5----0----5----0----5----2--|
Ab--0----5----0----5----0----5----2--|
Db--0----5----0----5----0----5----2--|

	lead
eb--------------------------------------------------|
Bb--------------------------------------------------|
Gb--777777712-12121212-1414-777777712-12121212-1414-|
Db--xxxxxxx-x--x-x-x-x--x-x-xxxxxxx-x--x-x-x-x--x-x-|
Ab--555555510-10101010-1212-555555510-10101010-1212-|
Db--------------------------------------------------|

eb---------------------------------------|
Bb---------------------------------------|
Gb--777777712-12121212121212-9---11--9-7-|
Db--xxxxxxx-x--x-x-x-x-x-x-x-x----x--x-x-|
Ab--555555510-10101010101010-7----9--7-5-|
Db---------------------------------------|

Play Part 2 of the Intro here as much as needed
(i think its 4 or 6 times)

Then play the verse again

Pre-chorus 2 -  strum each chord as needed
eb------------|
Bb------------|
Gb------------|
Db-9-----5----|
Ab-9-----5----|
Db-9-----5----|

Play the chorus here again

Bridge:

eb---------------------------|
Bb---------------------------|
Gb---------------------------|
Db--99----99----99----99-----|
Ab--99----99----99----99-----|
Db--99----99----99----99-----|

eb--------------------|
Bb--------------------|
Gb----77--77--77--77--|
Db--0077007700770077--|
Ab--0055005500550055--|
Db--00--00--00--00----|
[ Tab from: http://www.guitartabs.cc/tabs/s/sr_71/one_tab.html ]
eb------------------------------------------------|
Bb------------------------------------------------|
Gb------------------------------------------------|
Db--99----99----99----99----99xxxx99-x-x99xxxx99--|
Ab--99----99----99----99----99xxxx99-x-x99xxxx99--|
Db--99----99----99----99----99xxxx99-x-x99xxxx99--|

Interlude:
	  rhythm
  strum each chord here once        | here strum as needed
eb----------------------------------|--------------|
Bb----------------------------------|--------------|
Gb----------------------------------|--------------|
Db--0----5----0----5----0----5---5--|-5------2---5-|
Ab--0----5----0----5----0----5---5--|-5------2---5-|
Db--0----5----0----5----0----5---5\4|-5------2---5-|
      					  pm ......

	  lead
eb----------------------------|
Bb----------------------------|
Gb-----9/11-----9/11-----9/11-|
Db--0--x--x--0--x--x--0--x--x-|
Ab--0--7/-9--0--7/-9--0--7/-9-|
Db--0--------0--------0-------|

eb------------------------------------------------------|
Bb------------------------------------------------------|
Gb------------------------------------------------------|
Db------------------------------------------------------|
Ab--10\9/10-10---10----10---10---9--10--12--10-h12p10-9-|
Db------------12----12----12--12------------------------|

Final Chorus:
		Part 1

	     rhythm - strum each chord as needed
eb--------------------|
Bb--------------------|
Gb--------------------| (2x)
Db--0----5----0----5--|
Ab--0----5----0----5--|
Db--0----5----0----5--|

	     lead
eb--------------------------------------------------|
Bb--------------------------------------------------| (2x)
Gb--777777712-12121212-1414-777777712-12121212-1414-|
Db--xxxxxxx-x--x-x-x-x--x-x-xxxxxxx-x--x-x-x-x--x-x-|
Ab--555555510-10101010-1212-555555510-10101010-1212-|
Db--------------------------------------------------|

		Part 2

	     rhythm - strum each chord as needed
eb--------------------|
Bb--------------------|
Gb--------------------| (2x)
Db--0----5----0----5--|
Ab--0----5----0----5--|
Db--0----5----0----5--|

	     lead
eb---------------------------------|
Bb---------------------------------| (4x)
Gb--161616-14--12-12121212\11-9/11-|
Db---------------------------------|
Ab--141414\12--10-10101010\-9-7/-9-|
Db---------------------------------|

Outro:
	lead plays this little riff with the delay pedal
eb--------------------------------------|
Bb----10-10-10-10-8-7-8---8-8-8-8-7-5-7-| (4x)
Gb--7-------------------7---------------|
Db--------------------------------------|
Ab--------------------------------------|
Db--------------------------------------|

	rhythm
eb---------------------------|
Bb---------------------------| (2x)
Gb---------------------------|
Db--0-------------------0----|
Ab--0-------------------0----|
Db--0-------------------0----|


End On

eb-----
Bb-----
Gb-----
Db--0--
Ab--0--
Db--0--


There it is, another SR-71 song tabbed by me.
If you haven't yet noticed, SR-71 ALWAYS plays
with their guitars tuned half a step down. You
can play some of their songs in standard tuning
but it just isn't the same.
I'm working on the tabs to Blue Light Special Life
(the correct way to play it) and Mosquito and once
those are done i'll prolly also tab In Your Eyes
but i might put it under Mitch Allan instead of
SR-71 iunno, depends.
Comments