Sr-71 - My World Chords & Tabs

 

My World Chords & Tabs

Sr-71 Chords & Tabs

Version: 1 Type: Tab 0 ratings
1 star 2 stars 3 stars 4 stars 5 stars
comments

My World Tab

Intro

|--------------------------------------------------------------|
|--------------------------------------------------------------|
|-----7-8---78-8------7-8--78-8--7-8---78-8------7-8--7-8--9-8-|
|---6--------------5------------6--------------5---------------|
|--------------------------------------------------------------|
|--------------------------------------------------------------|


verse 1

|------------------------------------------------------------------|
|---------------------------------------------9999/888-6-4~--------|
|------------------------------------------------------------------|
|------------------------------------------------------------------|
|------------------------------------------------------------------|
|------------------------------------------------------------------|

|--------------------------------|
|--1/2--3/4--5/6--7/8--8/9\8~~---|
|--------------------------------|
|--------------------------------|
|--------------------------------|
|--------------------------------|

verse 2

|------------------------------------|
|----0-7-8-9-8~~-----0-7-8-9/12-8~~--|
|------------------------------------|
|------------------------------------|
|------------------------------------|
|------------------------------------|

pre-chorus

|-------------------------------|
|-------------------------------|
|-------------------------------|
|---8-8----6-6----8-8----6-6~---|
|---8-8----6-6----8-8----6-6~---|
|---6-6----4-4----6-6----4-4~---|

Chorus(listen to song for strumming)

|-----------------------------------------------------------------|
|-----------------------------------------------------------------|
|-----------------------------------------------------------------|
|--8------------8----------10-------5-------6------5------6~------|
|--8------------8----------10-------5-------6------5------6~------|
|--6------------6----------8--------3-------4------3------4~------|

Pre-verse

|-------------------------------------|
|-------------------------------------|
|-----7-8---78-8------7-8--7-8-9--8~--|
|---6--------------5------------------|
|-------------------------------------|
|-------------------------------------|

Verse 3
[ Tab from: http://www.guitartabs.cc/tabs/s/sr_71/my_world_tab.html ]
|------------------------------------------------------------------|
|---------------------------------------------9999\888-6-4~--------|
|------------------------------------------------------------------|
|------------------------------------------------------------------|
|------------------------------------------------------------------|
|------------------------------------------------------------------|

pre-chorus

|----------------------|
|----------------------|
|----------------------|
|---8-8----6-6----8-8--|
|---8-8----6-6----8-8--|
|---6-6----4-4----6-6--|

Chorus

|-----------------------------------------------------------------|
|-----------------------------------------------------------------|
|-----------------------------------------------------------------|
|--8------------8----------10-------5-------6------5------6~------|
|--8------------8----------10-------5-------6------5------6~------|
|--6------------6----------8--------3-------4------3------4~------|

Bridge

|----------------------------------------------------------|
|----------------------------------------------------------|
|----------------------------------------------------------|
|--6-6---6--6----6-6---6--6---13-13--13-13--13-13--13--13--|
|--6-6---6--6----6-6---6--6---13-13--13-13--13-13--13--13--|
|--4-4---4--4----4-4---4--4---11-11--11-11--11-11--11--11--|

|--------------------------------------------------------------------|
|--------------------------------------------------------------------|
|--------------------------------------------------------------------|
|--1010101010101010-9-9-9-9-9-9-9-9-8-8-8-8-8-8-8-8-8-8-8-8-8-8-8-8--|
|--1010101010101010-9-9-9-9-9-9-9-9-8-8-8-8-8-8-8-8-8-8-8-8-8-8-8-8--|
|--8-8-8-8-8-8-8-8--7-7-7-7-7-7-7-7-6-6-6-6-6-6-6-6-6-6-6-6-6-6-6-6--|

*chorus*
|----------------------------------------------------------|
|----------------------------------------------------------|
|--8888888877777777----------------------------------------|
|-------------------10-------5-------6------5------6-------|
|-------------------10-------5-------6------5------6-------|
|-------------------8--------3-------4------3------4-------|


|-----------------------------------------------------------------|
|-----------------------------------------------------------------|
|-----------------------------------------------------------------|
|--8------------8----------10-------5-------6------5------6~------|
|--8------------8----------10-------5-------6------5------6~------|
|--6------------6----------8--------3-------4------3------4~------|

End

|-------------|
|--8-8-88-----|
|--8-8-88--8--|
|----------8--|
|-------------|
|-------------|

Please feel free to email me if u see something wrong or find a better way
Comments