Sr 71 - Let It Whip Chords & Tabs

 

Let It Whip Chords & Tabs

Sr 71 Chords & Tabs

Version: 1 Type: Tab 0 ratings
1 star 2 stars 3 stars 4 stars 5 stars
comments

Let It Whip Tab

Band – SR-71
Song – let it whip
Tunning:  Full Step down then drop D (CGCFAD)
Tabbed by Mike
^  =  excessively bend back and forth or use a wah pedal

[ Tab from: http://www.guitartabs.cc/tabs/s/sr_71/let_it_whip_tab.html ]
Intro and verse riff                                                    
                                         (add this part sometimes)	
D||-------------------------------------------------------------------||
A||-----------^------------------^-----------------------------^--^---||
F||-----5-----5-----------5------7------(---5-----5-------5-----7--5)-||
C||--7-----7-----------7-----7----------(7-----7-------7-----7------)-||
G||-------------------------------------------------------------------||
C||-------------------------------------------------------------------||
This chord is played some through the verse
D||-------------------------------------------------------------------||
A||-----5-------------------------------------------------------------||
F||-----5-------------------------------------------------------------||
C||-------------------------------------------------------------------||
G||-------------------------------------------------------------------||
C||-------------------------------------------------------------------||


Verse
D||-------------------------------------------------------------------||
A||-------------------------------------------------------------------||
F||-------------------------------------------------------------------||
C||--5---7---7---10---------------------------------------------------||
G||--5---7---7---10---------------------------------------------------||
C||--5---7---7---10---------------------------------------------------||

Chorus
D||-------------------------------------------------------------------||
A||-------------------------------------------------------------------||
F||-------------------------------------------------------------------||
C||--7---5---10---7---------------------------------------------------||
G||--5---5---10---7---------------------------------------------------||
C||------5---10---7---------------------------------------------------||


That’s pretty much it. It wasn’t too hard. Tell me what you think at my email address which is mike_the_milk_man@ yahoo.com
Comments