Sr-71 - Last Man On The Moon Chords & Tabs

 

Last Man On The Moon Chords & Tabs

Sr-71 Chords & Tabs

Version: 1 Type: Tab 0 ratings
1 star 2 stars 3 stars 4 stars 5 stars
comments

Last Man On The Moon Tab

Tabbed by: Mike

/ =slide up
~ = let ring


Intro: guitar 1
		comes in at 0:13

e----------------|
B----------------|   Just play this chord fast
G----11----------|   until the verse starts.
D----11----------|
A-----9----------|
E----------------|


guitar 2 comes in at 0:19

e-------------------------------------------------------------|
B-------------------------------------------------------------|
G--101010101010101011111111111111111313131313131313-----------|
D---x-x-x-x-x-x-x-x-x-x-x-x-x-x-x-x-x-x-x-x-x-x-x-x-----------|
A---8-8-8-8-8-8-8-8-9-9-9-9-9-9-9-91111111111111111-----------|
E-------------------------------------------------------------|

Verse: guitar 1
                (play this 2x)
e-------------------------------------------------------------|
B-------------------------------------------------------------|
G--11-1111-11-1111-11-11-11-1111-11-1111-11-11----------------|
D--11-1111-11-1111-11-11-11-1111-11-1111-11-11----------------|
A---9--9-9--9--9-9--9--9--9--9-9--9--9-9--9--9----------------|
E-------------------------------------------------------------|
pm     . .     . .     .     . .     . .     .

   then play this once
e-------------------------------------------------------------|
B-------------------------------------------------------------|
G--6-66-6-66-10-10-11-1111-11-1111-11-11-6-66-6-66-6-6-6-66-6-|
D--6-66-6-66-10-10-11-1111-11-1111-11-11-6-66-6-66-6-6-6-66-6-|
A--4-44-4-44--8--8--9--9-9--9--9-9--9--9-4-44-4-44-4-4-4-44-4-|
E-------------------------------------------------------------|
pm   ..   ..     .     . .     . .     .   ..   ..   .   ..


e------------------|
B------------------|
G-66-6-6-----------|
D-66-6-6-----------|
A-44-4-4-----------|
E------------------|
pm..   .

after that play:

"all these things..."
e-------------------------------------------------------------|
B-------------------------------------------------------------|
G--11-1111-11-1111-11-11-10-1010-10-1010-10-10-8-88-8-88-8-8--|
D--11-1111-11-1111-11-11-11-1111-11-1111-11-11-8-88-8-88-8-8--|
A---9--9-9--9--9-9--9--9--8--8-8--8--8-8--8--8-6-66-6-66-6-6--|
E-------------------------------------------------------------|
pm     . .     . .     .     . .     . .     .   ..   ..   .


e------------------------|
B------------------------|
G-10-1010-10-1010-10-10--|
D-11-1111-11-1111-11-11--|
A--8--8-8--8--8-8--8--8--|
E------------------------|
pm    . .     . .     .

e-------------------------------------------------------------|
B-------------------------------------------------------------|
G--11-1111-11-1111-11-11-10-1010-10-1010-10-10-8-88-8-88-8-8--|
D--11-1111-11-1111-11-11-11-1111-11-1111-11-11-8-88-8-88-8-8--|
A---9--9-9--9--9-9--9--9--8--8-8--8--8-8--8--8-6-66-6-66-6-6--|
E-------------------------------------------------------------|
pm     . .     . .     .     . .     . .     .   ..   ..   .


e--------------------|
B--------------------|
G--6-66-6-66-6-6-----|
D--6-66-6-66-6-6-----|
A--4-44-4-44-4-4-----|
E--------------------|
pm   ..   ..   .

Pre chorus: both guitars  (strum each cord only once)

"and i close my eyes..."
e------------------------------------------------|
B------------------------------------------------|
G-------------------6----------------------------|
D---8----10----4----6----8----10----4----66------|
A---8----10----4----4----8----10----4----66------|
E---6-----8----2---------6-----8----2----44------|

then it plays this:

e-----------------------------------------------------------|
B-----------------------------------------------------------|
G---11-1111-11-1111-11-11-10-1010-10-1010-10-10-13-1313-13--|
D---11-1111-11-1111-11-11-11-1111-11-1111-11-11-13-1313-13--|
A----9--9-9--9--9-9--9--9--8--8-8--8--8-8--8--8-11-1111-11--|
E-----------------------------------------------------------|
pm      . .     . .     .     . .     . .     .     . .

e---------------------------------------|
B---------------------------------------|
G--1313-13-13-11-1111-11-1111-11-11-----|
D--1313-13-13-11-1111-11-1111-11-11-----|
A--1111-11-11--9--9-9--9--9-9--9--9-----|
E---------------------------------------|
pm  . .     .     . .     . .     .


chorus: guitar 1

PART1
"and I'm never out of bed..."
e------------------------------------------------|
B------------------------------------------------|
G----666666661010101010101010--------------------|
D----6666666610101010101010104444444444444444----|
A----44444444-8-8-8-8-8-8-8-84444444444444444----|
E----------------------------2222222222222222----|

e------------------------------------------------|
B------------------------------------------------|
G----66666666------------------------------------|
D----66666666666666664444444444444444------------|
A----44444444666666664444444444444444------------|
E------------444444442222222222222222------------|

  PART 2 both guitars
 "And i could never be Neil Armstrong..."
e------------------------------------------------|
B------------------------------------------------|
G------------------------------------------------|
D---888888888888888844444444--66-----------------|
A---888888888888888844444444--66-----------------|
E---666666666666666622222222--44-----------------|

 guitar 2 (play 8x)
e----------------------|
B----------------------|
G---6-----6---8-8------|
D-----6-6---6----------|
A----------------------|
E----------------------|
pm    . .   .   .

after the chorus play:
e-----------------------------------------------------------|
B-----------------------------------------------------------|
G---11-1111-11-1111-11-11-10-1010-10-1010-10-10-13-1313-13--|
D---11-1111-11-1111-11-11-11-1111-11-1111-11-11-13-1313-13--|
A----9--9-9--9--9-9--9--9--8--8-8--8--8-8--8--8-11-1111-11--|
E-----------------------------------------------------------|
pm      . .     . .     .     . .     . .     .     . .

e---------------------------------------|
B---------------------------------------|
G--1313-13-13-11-1111-11-1111-11-11-----|
D--1313-13-13-11-1111-11-1111-11-11-----|
A--1111-11-11--9--9-9--9--9-9--9--9-----|
E---------------------------------------|
pm  . .     .     . .     . .     .
[ Tab from: http://www.guitartabs.cc/tabs/s/sr_71/last_man_on_the_moon_tab.html ]
e-------------------------------------------------------------|
B-------------------------------------------------------------|
G--101010101010101011111111111111111313131313131313-----------|
D---x-x-x-x-x-x-x-x-x-x-x-x-x-x-x-x-x-x-x-x-x-x-x-x-----------|
A---8-8-8-8-8-8-8-8-9-9-9-9-9-9-9-91111111111111111-----------|
E-------------------------------------------------------------|

Verse 2:
starts half way through: (play 4x)
 "till my dreams..."
e--13----13----13------------|
B----14----14----------------|
G------13----13---13---------|
D----------------------------|
A----------------------------|
E----------------------------|

chorus 2: guitar 1

PART 1
e------------------------------------------------|
B------------------------------------------------|
G----666666661010101010101010--------------------|
D----6666666610101010101010104444444444444444----|
A----44444444-8-8-8-8-8-8-8-84444444444444444----|
E----------------------------2222222222222222----|

e------------------------------------------------|
B------------------------------------------------|
G----66666666------------------------------------|
D----66666666666666664444444444444444------------|
A----44444444666666664444444444444444------------|
E------------444444442222222222222222------------|

guitar 2 (play 8x)
e----------------------|
B----------------------|
G---6-----6---8-8------|
D-----6-6---6----------|
A----------------------|
E----------------------|
pm    . .   .   .

 PART 2 both guitars
"so i close my eyes..."
e---------------------------------------------------|
B---------------------------------------------------|
G-------------------------------------6-------------| (play 2x)
D---88888888101010101010101044444444--6-------------|
A---88888888101010101010101044444444--4-------------|
E---66666666-8-8-8-8-8-8-8-822222222----------------|
pm  ................................

Bridge: guitar 1 (play 2x)
 "in a place..."
e----------------------------------------------------|
B----------------------------------------------------|
G---888888888888888810101010101010101010101010101010-|
D---888888888888888810101010101010101010101010101010-|
A---6666666666666666-8-8-8-8-8-8-8-8-8-8-8-8-8-8-8-8-|
E----------------------------------------------------|

 guitar 2
  (play 2x)
e----------------------------------------------------|
B----------------------------------------------------|
G---88888888888888881010101010101010-----------------|
D---88888888888888881010101010101010-----------------|
A---6666666666666666-8-8-8-8-8-8-8-8--9/11-9-8-9-----|
E----------------------------------------------------|

both guitars

e----------------------------------------------------|
B----------------------------------------------------|
G---888888888888888810101010101010101313131313131313-|
D---888888888888888810101010101010101313131313131313-|
A---6666666666666666-8-8-8-8-8-8-8-81111111111111111-|
E----------------------------------------------------|

Interlude: guitar 1

e----------------------------------------------|
B----------------------------------------------|
G--11~--10~--8~--6~---10~--11~--6~-------------|
D----------------------------------------------|
A----------------------------------------------|
E----------------------------------------------|

 guitar 2

e--14----14----14---13----13----13-------------|
B----14----14---------14----14-----------------|
G------13----13--13----13----13---13-----------|
D----------------------------------------------|
A----------------------------------------------|
E----------------------------------------------|

e--11----11----11---13----13----13-------------|
B----14----14---------14----14-----------------|
G------13----13--13-----13----13--13-----------|
D----------------------------------------------|
A----------------------------------------------|
E----------------------------------------------|

e--13-----13----13---14----14----14------------|
B----14-----14---------13----13----------------|
G------13-----13--13-----13----13--13----------|
D----------------------------------------------|
A----------------------------------------------|
E----------------------------------------------|

e--13----13----13-----13---|
B----14----14---------14---|
G------13----13--13---13---|
D--------------------------|
A--------------------------|
E--------------------------|

after this play chorus 1 PART 1 2x

then play the bridge again

Outro: guitar 1

e----------------------------------------------|
B----------------------------------------------|
G--1111111111111111101010101010101088888888-6--|
D--1111111111111111111111111111111188888888-6--|
A---9-9-9-9-9-9-9-9-8-8-8-8-8-8-8-866666666-4--|
E----------------------------------------------|

guitar 2

e--14----14----14---13----13----13-------------|
B----14----14---------14----14-----------------|
G------13----13--13----13----13---13-----------|
D----------------------------------------------|
A----------------------------------------------|
E----------------------------------------------|

e--11----11----11------------|
B----14----14---------14-----|
G------13----13--13---13-----|
D----------------------------|
A----------------------------|
E----------------------------|


Order:

Intro
Verse 1
Pre chorus
chorus PART 1&2
the thing after the first chorus
verse 2
chorus 2
Bridge
Interlude
chorus PART 1(2x)
Bridge
Outro


Lyrics:


I just can't seem to concentrate today
Seems my mind is wandering away
All these things swimmin through my head
Fade away when I go back to bed

And I close my eyes
See how fast time flies
Cause sunrise comes too soon

And I'm never out of bed before noon
And wakin up too late would be too soon
and I could never be Neil Armstrong
I'd be the last man on the moon

I used to live in a world of black and white
Until my dreams turned day into night

And I'm never out of bed before noon
And wakin up too late would be too soon
So I close my eyes
And wait for the suprise

In a place I know I be long
(In a place I know I be long)
In my head I can do no wrong
(In my head I can do no wrong)
And I could never be Neil Armstrong
I'd be the last man on the moon

Never out of bed before noon
And wakin up too late would be too soon
And I'm never out of bed before noon
And hide in the corners of my room

In a place I know I be long
(In a place I know I be long)
In my head I can do no wrong
(In my head I can do no wrong)
Who ever heard of an astronaut with one arm
I'd be the last man on the moon


Have fun wit dis song an once the new cd comes out
here in Canada ill be sure to get u more tabs.
Comments