Sr-71 - Here We Go Again Chords & Tabs

 

Here We Go Again Chords & Tabs

Sr-71 Chords & Tabs

Version: 1 Type: Tab 0 ratings
1 star 2 stars 3 stars 4 stars 5 stars
comments

Here We Go Again Tab

-----------------------------------------------------------------|
--4p0-0--2p0-0--4p0--5p0-0--4p0-0--5p0--7p0-0--5p0-0--7p0--7s9-7-|
-----------------------------------------------------------------|
-----------------------------------------------------------------|
-----------------------------------------------------------------|
-----------------------------------------------------------------|

----------------------------------------------------------------|
----------------------------------------------------------------|
---------------------------9v-9v------16v--16v------------------|
-4s6--4---------------------------------------------------------|
---------4 4(6)r4--2-s--7---------s14---------------------------|
----------------------------------------------------------------|

[ Tab from: http://www.guitartabs.cc/tabs/s/sr_71/here_we_go_again_tab.html ]
-19p16-----19p16-----19p16---19p16----19p16----19p16--19(21)r19-|
-------16--------16----------------16-------16------------------|
----------------------------------------------------------------|
----------------------------------------------------------------|
----------------------------------------------------------------|
----------------------------------------------------------------|


----------------------------------------------------------------|
-16--16h17p16--17(19)r17----------------------------------------|
-------------------------16v------16--16h18p16-18(20)r18-16-----|
------------------------------s18-------------------------------|
----------------------------------------------------------------|
----------------------------------------------------------------|

----------------------------------------------------------------|
----------------------------------------------------------------|
--15--15(16)*---------------------------------------------------|
-----------------s16--16--16s18v--------------------------------|
----------------------------------------------------------------|
----------------------------------------------------------------|

*gradual bend


have fun
Comments