Sr-71 - Hello Hello Chords & Tabs

 

Hello Hello Chords & Tabs

Sr-71 Chords & Tabs

Version: 1 Type: Tab 0 ratings
1 star 2 stars 3 stars 4 stars 5 stars
comments

Hello Hello Tab

-----------------------------------------------------------------------------
			     Hello Hello - Sr-71
-----------------------------------------------------------------------------
Tabbed by: Pryftan
Email: mmisbetterthenyou@hotmail.com

Tuning: Drop D 1/2 step down

Yeah, more Sr-71 stuff...I have no life...

Intro
Eb|---------------|
Bb|---------------|
Gb|--7------------|
Db|--7----7----5--|
Ab|--5----7----5--|
Db|--0----7----5--|

Verse
Eb|--2--2--3--0--|
Bb|--3--3--3--3--|
Gb|--4--2--0--3--|
Db|--4--0--0--3--|
Ab|--------------|
Db|--------------|

Pre-Chorus
Eb|-------------------------|
Bb|-------------------------|
Gb|-------------------------|
Db|--2---4-5---4-2---5---7--|
Ab|--2---4-5---4-2---5---7--|
Db|--2---4-5---4-2---5---7--|

Chorus 
Eb|------------------------|
Bb|------------------------|
Gb|--7---------------------|
Db|--7----7----5-----------|
Ab|--5----7----5-----------|
Db|--0----7----5----5--4-2-|
[ Tab from: http://www.guitartabs.cc/tabs/s/sr_71/hello_hello_tab.html ]
For every chorus after this, play the first Chorus part twice, but for the first
time play it and then follow it with this:
Eb|---------------------|
Bb|---------------------|
Gb|--7------------------|
Db|--7----7----5--8--5--|
Ab|--5----7----5--8--5--|
Db|--0----7----5--8--5--|

Verse w/ distortion

Verse

Pre-Chorus

Chorus

Solo Rhythm
Eb|-------------------------|
Bb|-------------------------|
Gb|--7----------------------|
Db|--7----7----9--7--5---7*-|
Ab|--5----7----9--7--5---7*-|
Db|--0----7----9--7--5---7*-|
*omit second time

Pre-Chorus

Chorus Variation
Eb|--2----0----3--|
Bb|--3----3----3--|
Gb|--2----3----0--|
Db|--0----3----0--|
Ab|---------------|
Db|---------------|

Chorus Variation w/ distortion
Eb|----------|
Bb|----------|
Gb|----------|
Db|----------|
Ab|----------|
Db|--5--4-2--|

Chorus

Ending
Eb|---------------------|
Bb|---------------------|
Gb|--7------------------|
Db|--7----7----9--7--5--|
Ab|--5----7----9--7--5--|
Db|--0----7----9--7--5--|
Comments