Squirtgun - Field Trip Chords & Tabs

 

Field Trip Chords & Tabs

Squirtgun Chords & Tabs

Version: 1 Type: Bass Tab 0 ratings
1 star 2 stars 3 stars 4 stars 5 stars
comments

Field Trip Bass Tab

FEILD TRIP BY: SQUIRTGUN
BASS TAB BY P.J. CHRISTY

G|------------------------------------------
D|------4/5\4---7-5-4-----------------------
A|--5-5-------5------------2/3\2---4-5-4----
E|---------------------3-3-------5----------

G|--------------7-5-4-----4/5\4---6-7-6-----
D|------4/5\4---------5-5-------7-----------
A|--5-5-------5-----------------------------
E|------------------------------------------
[ Tab from: http://www.guitartabs.cc/tabs/s/squirtgun/field_trip_btab.html ]
G|--7-7-7-7-7-7--5-4-------4/5\4---6-7-6----
D|-------------------7-5-5-------7----------
A|------------------------------------------
E|------------------------------------------

G|--7-7-7-7-7-7--5-4-------4/5\4---6-7-6-7--
D|-------------------7-5-5-------7----------
A|------------------------------------------
E|------------------------------------------

G|------------------------------------------
D|------------------------------------------
A|----------5---------5---------5-----------
E|--3-3-5-5---3-3-5-5---3-3-5-5---3-3-5-5---

FOR THE MOST PART THIS IS IT, THE TUNING IS NORMAL
AND THE SECOND VERSE PULLS OFF A LOT OF OTHER CRAP.
FOR ANY QUESTIONS OR COMMENTS YOU CAN CONTACT ME AT
SUBLIME120@HOTMAIL.COM




[] Sublime120.vcf 

Comments