Squier Billy - Lonely Is The Night Main Riff Chords & Tabs

 

Lonely Is The Night Main Riff Chords & Tabs

Squier Billy Chords & Tabs

Version: 1 Type: Tab 3 ratings
1 star 2 stars 3 stars 4 stars 5 stars
comments

Lonely Is The Night Main Riff Tab

Lonely is the Night
By Billy Squier


This is just the main riff i haven't got the rest yet. But i'm trying.


E----------------------
B----------------------
G-4-4-4--2-X-4---------
D-2-2-2--0-X-2-RING----
A----------------------
E----------------------
[ Tab from: http://www.guitartabs.cc/tabs/s/squier_billy/lonely_is_the_night_main_riff_tab.html ]
E-------------------------------
B-------------------------------
G-4-4-4--2-X-2-2-2-2------------
D-2-2-2--0-X-2-0-0-2-RING-------
A------------0------------------
E-------------------------------

Well, thats what i have so far. Just play it a few times and soon
it will sound pretty good. You have to play this a couple times to
get the rhythm right. You basically just repeat this in the entire 
song.

Thanks,
Jesse
Comments